Ok Go - Do What You Want Chords & Tabs

 

Do What You Want Chords & Tabs

Ok Go Chords & Tabs

Version: 1 Type: Tab 0 ratings
1 star 2 stars 3 stars 4 stars 5 stars
comments

Do What You Want Tab

Intro/Verse
[ Tab from: http://www.guitartabs.cc/tabs/o/ok_go/do_what_you_want_tab.html ]
E|-------------------------------------------------------------------------|
B|-------------------------------------------------------------------------|
G|-------------------------------------------------------------------------|
D|-------------------------------------------------------------------------|
A|--2-2-2-0-------------------9-8-7--7-7--5-4-2--2-2-0-0-------------------|
E|-----------------4-2--2-2------------------------------------------------| x2

Then after that lick play:

E|-----------------------------------------------------------------------|
B|-----------------------------------------------------------------------|
G|---------------9-------------------------------------------------------|
D|---------------9------------(let ring)---------------------------------|
A|---------------7-------------------------------------------------------|

Play intro again all through the verses.

Tabbed by Jen.
Comments