Ok Go - A Million Ways Chords & Tabs

 

A Million Ways Chords & Tabs

Ok Go Chords & Tabs

Version: 1 Type: Bass Tab

A Million Ways Bass Tab

   
-------------------------------------------------------------------------------
			     A Million Ways - Ok Go
-------------------------------------------------------------------------------
Tabbed by: Steven Gladman
Email: stevie.gladman@ntlworld.com

Tuning: EADG



G|----------------------------------------------------|
D|-----------10---9---7-7-7\------5-7------5-7--------|
A|--7-7-7\--------------------5-7-----5-7------5------| X 4
E|-------------8----7---------------------------------| 

G|-----------------------------------------------|
D|------5--------------9-------------------------|
A|--------------9--9-9---7--7-7\3-3--5-5\--------| X 1
E|--3-3---3/7-7----------------------------------| 

G|------------------------------|
D|------5------------5------7---|
A|------------9--3-3----6-6-----|
E|--3-3---7-7-------------------|  X 1

G|----------------------------------------------------|
D|-----------10---9---7-7-7\------5-7------5-7--------|
A|--7-7-7\--------------------5-7-----5-7------5------| X 2
E|-------------8----7---------------------------------|

G|---------9-9-------------------------------------------------/12-11-----|
D|-9-9-------------9-9------10---9---7-7-----10-10-----7-7----------------|
A|-----7-7-----7-7-----7-7---------------7-7-------7-7-----7-7------------| X 1
E|-----------------------------8---7--------------------------------------|

G|--9-9------------9-9---------------------------------------------------|
D|---------9-9--------------10---9---7-7-----10-10-----7-7-----7--8------|
A|-----7-7-----7-7-----7-7---------------7-7-------7-7-----7-7-----------| X 2
E|-----------------------------8---7-------------------------------------|

G|-----------------------------------------------|
D|------5--------------9-------------------------|
A|--------------9--9-9---7--7-7\3-3--5-5\--------| X 1
E|--3-3---3/7-7----------------------------------| 

G|------------------------------|
D|------5------------5------7---|
A|------------9--3-3----6-6-----|
E|--3-3---7-7-------------------|                     X 2

[ Tab from: http://www.guitartabs.cc/tabs/o/ok_go/a_million_ways_btab.html ]
G|----------------------------------------------------|
D|-----------10---9---7-7-7\------5-7------5-7--------|
A|--7-7-7\--------------------5-7-----5-7------5------| X 2
E|-------------8----7---------------------------------|

G|------------16-------16--16-14-12---------14-------14--14--12----------|
D|------12-14----12-14----------------12-14----12-14------------14-12-14-|
A|-----------------------------------------------------------------------|  X 2
E|-----------------------------------------------------------------------|  

G|-5-5--5-5--5-5--5-5--8-8-8-4-4-4-8-4-2-0--|
D|------------------------------------------|
A|------------------------------------------|
E|------------------------------------------|

G|----------------------------------------------------|
D|-----------10---9---7-7-7\------5-7------5-7--------|
A|--7-7-7\--------------------5-7-----5-7------5------| X 2
E|-------------8----7---------------------------------|  

G|---------9-9----------------------------------------------------------|
D|-9-9-------------9-9------10---9---7-7-----10-10-----7-7------7--8----|
A|-----7-7-----7-7-----7-7---------------7-7-------7-7-----7-7----------| X 1
E|-----------------------------8---7------------------------------------|

G|---------9-9-------------------------------------------------/12-11-----|
D|-9-9-------------9-9------10---9---7-7-----10-10-----7-7----------------|
A|-----7-7-----7-7-----7-7---------------7-7-------7-7-----7-7------------| X 1
E|-----------------------------8---7--------------------------------------|

G|---------9-9----------------------------------------------------------|
D|-9-9-------------9-9------10---9---7-7-----10-10-----7-7------7--8----|
A|-----7-7-----7-7-----7-7---------------7-7-------7-7-----7-7----------| X 2
E|-----------------------------8---7------------------------------------|

G|--------------------------------|
D|------5------------5------7-----|
A|------------9--3-3----6-6---7\--|
E|--3-3---7-7---------------------|  X 1

| /  slide up
| \  slide down
| h  hammer-on
| p  pull-off
| ~  vibrato
| +  harmonic
| x  Mute note
===============================================================================