Oingo Boingo - Little Girls Chords & Tabs

 

Little Girls Chords & Tabs

Oingo Boingo Chords & Tabs

Version: 1 Type: Bass Tab 0 ratings
1 star 2 stars 3 stars 4 stars 5 stars
comments

Little Girls Bass Tab

Oingo Boingo - Little Girls

Bass Tab

by The Hermit (adeptoANTISPAMREMOVETHIS@graffiti.net)

Standard E tuning

\(x) = slide to x


1:

|-------------------------------------------------------|
|-------------------------------------------------------|
|-4-4-4-4-4-4-4-4-4-4-4-4-4-4-4-4-----------------------|
|---------------------------------6-6-6-6-4-6-6-6--2--4-|

2:

|-------------------------------------------------------|
|---------1-1-------------------------------------------|
|---1-4-4-------4-8-8-4-4-------------------------------|
|-2-----------6-----------4-4-4-4-4---------------------|

3:

|-------------------------------------------------------|
|---------1-1-------------------------------------------|
|---1-4-4-------4-8-8-4-4---3-6-6-3-4-4-4-4-------------|
|-2-----------6-----------4-----------------------------|

4:

|-------------------------------------------------------|
|-4-4--4-4--4-4--4-4--4-4--4-4--------------------------|
|-------------------------------6--6-4-6----------------|
|-------------------------------------------------------|

5:

|---------------------|
|---------------------| 3x
|---------------------|
|-4-4-4-4-4-4-4-4--2--|
[ Tab from: http://www.guitartabs.cc/tabs/o/oingo_boingo/little_girls_btab.html ]
|-------------------------------------------------------|
|-----------------6--6--6--6--6-6-6-6-4--4-6------------|
|-------------------------------------------------------|
|-4-4-4-4-4-4-4-4---------------------------------------|

6:

|-------------------------------------------------------|
|-4-4--4-4----------------------------------------------|
|-----------6-6-6-6-6-----------------------------------|
|---------------------6\(4)-----------------------------|

7:

|-------------------------------------------------------|
|-----------------------------------------3-------------| 4x
|-------------4-4-4-4-4-4--------------1-----4----------|
|-6-6-6-6-6-6-------------2-2-2-2-2-2-------------------|

|------------------------------|
|------------------------------|
|-------------4-3-4-3-4--------|
|-6--6--6--6-------------6\(2)-|

8:

|-------------------------------------------------------|
|-------------------------------------------5-5--5-3-5--|
|-----------------------------5-5-5-5-5--5--------------|
|-2-2-2-2-2--2--5-5-5-5-5--5----------------------------|

|-------------------------------------------------------|
|-------------------------------------------------------|
|----6--9--6-----6--9--6-----6--9--6--11-11-11-11-11----|
|-7-----------7-----------7-----------------------------|

9:

|-------------------------------------------------------|
|-4-4--4-4--4-4--4-4--4-4--4-4--------------------------|
|-------------------------------6-6-6-6-6---------------|
|------------------------------------------6\(4)--------|

10:

|-------|
|-------|
|-6--4--|
|-------|
Comments