Oi Polloi - Boot Down The Door Chords & Tabs

 

Boot Down The Door Chords & Tabs

Oi Polloi Chords & Tabs

Version: 1 Type: Bass Tab 0 ratings
1 star 2 stars 3 stars 4 stars 5 stars
comments

Boot Down The Door Bass Tab

Artist:   oí palloí
Song:     Boot Down the Door
Album:    Total Anarchoi
Tabed by: PunkRawkPat@hotmail.com

"Best if viewed with vi"

main riff
[ Tab from: http://www.guitartabs.cc/tabs/o/oi_polloi/boot_down_the_door_btab.html ]
G----------------------------------------------
D----------------------------------------------
A-4-4-4-4-4-4-0-0-0-0-0-2-2-2-2-2-2------------
E------------------------------------------------4-4-4-4-4-

goes off on this near the end also the outro

G------------------------------------------------
D------------------------------------------------
A-4-2-0-----4-2-0-----4-2-0-----------------------
E---------4-0-------4-0---------4-0--2(let ring)------


Comments