Oi Polloi - Atomic Menace Chords & Tabs

 

Atomic Menace Chords & Tabs

Oi Polloi Chords & Tabs

Version: 1 Type: Bass Tab 0 ratings
1 star 2 stars 3 stars 4 stars 5 stars
comments

Atomic Menace Bass Tab

Tuning: normal
[ Tab from: http://www.guitartabs.cc/tabs/o/oi_polloi/atomic_menace_btab.html ]
INTRO
G|---------------------------------------------------------------------------|
D|---------------------------------------------------------------------------|
A|----777777777777-65--------------------------------------------------------|
E|---------------------------------------------------------------------------|
VERSE
G|---------------------------------------------------------------------------|
D|------------45-------------------------23----------------------------------|
A|----7777-7-------------56-------5555-5-------------34----------------------|
E|---------------8888--8----------------------6666-6-------------------------|
CHORUS/VERSE II
G|---------------------------------------------------------------------------|
D|---------------------5>----------------------------------------------------|
A|----7777-65-------6>-------------------------------------------------------|
E|---------------------------------------------------------------------------|
Comments