Ohio State Fight Song - Ohio State Chords & Tabs

 

Ohio State Chords & Tabs

Ohio State Fight Song Chords & Tabs

Version: 1 Type: Tab 0 ratings
1 star 2 stars 3 stars 4 stars 5 stars
comments

Ohio State Tab

Go bucks.

E------------------------------------------------------------------------|
B------------------------------------------------------------------------|
G------6-7-6-7-6-7-6---7-6-5-6-5-6-----5-6-5-6-5-6-----6---6-------9-9-9-|
D--7-9---------------9-------------7-9-------------9-7---9---9-8-9-------|
A------------------------------------------------------------------------|
E------------------------------------------------------------------------|
[ Tab from: http://www.guitartabs.cc/tabs/o/ohio_state_fight_song/ohio_state_tab.html ]
E------------------------------------------------------------------------|
B---------------------------------7-7------------------------------------|
G-9-6-----7-6-----9-6-----7-6-7-9-----9-7-----------7---7-6-7------------|
D-----9-7-----9-7-----9-7-----------------9-7-7-7-9---9------------------|
A------------------------------------------------------------------------|
E------------------------------------------------------------------------|


Fight the Team Across the Field 

Fight the team across the field
Show them Ohio's here
(We've got the team why don't we)
Set the Earth reverberating
With a mighty cheer
RAH! RAH! RAH!
Hit them hard and see how they fall
Never let that team get the ball
Hail! Hail! The gang's all here
So let's win that old conference now!
(So let's beat that Michigan now!)
(Oh, Ohio! Oh, Ohio! Wahoo! Wahoo for Ohio!)
[Repeat all lines, except the last line] 


Lemme know if there are any wrong notes (there might be one or two at the end of the 1st line)
You figure out the rhythm.  If you don't like this key, then just move the whole thing up or down
a couple steps.

email me: atmosphericscientist@yahoo.com
Comments