Ohgr - Cracker Chords & Tabs

 

Cracker Chords & Tabs

Ohgr Chords & Tabs

Version: 1 Type: Bass Tab 0 ratings
1 star 2 stars 3 stars 4 stars 5 stars
comments

Cracker Bass Tab

Ohgr - Cracker
Tabbed By: juggalo Zentigix
EMail: the_great_2bad@hotmail.com
Album: WELT


Main Riff 1 (2X)
G---------------------------------------------------------------------
D---------------------------------------------------------------------
A-----------11--11-11--11-14--14-14-14-11--11-11--11------------------
E-9--9-9--9-----------------------------------------------------------

Main Riff 2 (2X)
[ Tab from: http://www.guitartabs.cc/tabs/o/ohgr/cracker_btab.html ]
G------------------------------------------------------------------------------
D------------------------------------------------------------------------------
A-----------11--11-11--11-----------11--11-11--11------------------------
E-9--9-9--9---------------7--7-7--7--------------------------------------

Pre-Chorus (2X)
G------------------------------------------------------------------------------
D------------------------------------------------------------------------------
A--14--14-14--14-11--11-11--11--------------------------------------------
E------------------------------------------------------------------------------

Main Riff 1 (1X)
Main Riff 2 (1X)
Main Riff 1 (1X)
Main Riff 2 (1X)
Pre-Chorus (2X)
Main Riff 1 (1X)
Main Riff 2 (1X)
Main Riff 1 (1X)
Main Riff 2 (1X)
Pre-Chorus (2X)
Main Riff 1 (1X)
Main Riff 2 (1X)
Main Riff 1 (1X)
Main Riff 2 (1X)
Comments