Oh No Yoko - Hatshepsut Chords & Tabs

 

Hatshepsut Chords & Tabs

Oh No Yoko Chords & Tabs

Version: 1 Type: Tab 0 ratings
1 star 2 stars 3 stars 4 stars 5 stars
comments

Hatshepsut Tab

Tuning: Standard

Tabbed by: Nathan Chan



Riff 1

Guitar 1
E|--------------------------------------|
B|--------------------------------------|
G|--------------------------------------|
D|-----7-----7/9\7-------4h5-----5\4----|
A|--5-----5---------5--4----------------|
E|-----------------------------5--------|
[ Tab from: http://www.guitartabs.cc/tabs/o/oh_no_yoko/hatshepsut_tab.html ]
Guitar 2
E|-----------------------------------|
B|-----------------------------------|
G|-----------7/9\7-------------------|
D|-----7-----------------------------|
A|--5-----5---------5--4h5h7--0h2/5--|
E|-----------------------------------|


Verse

E|---------------------|
B|-----7-----7---------|
G|--7-----7------------|
D|--------------repeat-|
A|---------------------|
E|---------------------|


Riff 2

This may be wrong...
E|----------------------------------------|
B|----------------------------------------|
G|--------------9*----------7/9-----------|
D|--7-7---7-7------7-7---7-7-----7-----2x-|
A|--5-5---5-5------5-5---5-5--------------|
E|----------------------------------------|
Comments