Offspring - Why Dont You Get A Job Chords & Tabs

 

Why Dont You Get A Job Chords & Tabs

Offspring Chords & Tabs

Version: 1 Type: Chords 0 ratings
1 star 2 stars 3 stars 4 stars 5 stars
comments

Why Dont You Get A Job Chords

   
Song: Why don't you get a job
Band: The Offspring
Album: Americana (1999-Track 11)
Tabbed by: Pafsanias (ichorid_gr@yahoo.com)

OK that's an extremely easy and simple song... I've been playing 
guitar for 3 1/2 years and I decided to start my tabbing career 
easily with this song :)

So here we are.

The basic idea of this song (if you're a newbie) is to tap your 
feet and when your foot is rising play the chord. When the foot 
is stepping on the ground loose the chord to mute it (using your 
left hand).

Another way to do this is by playing with the right hand downstrikes 
and upstrikes: When the hand is raising up, play the chord, but when 
it's going down, don't play anything.

You shouldn't have a problem with that. Its rythm is very simple 
and the song is repeating.

Ok we're starting. Enjoy :)

Tuning: EADGBE

VERSE: ("My friend's got a girlfriend...")

E-|-|-----------------------------------------------------
B-|-|-----------------------------------------------------
G-|-|--10--X--10--X--10--X--10--X-------------------------
D-|-|--10--X--10--X--10--X--10--X--8--X--8--X--8--X--8----
A-|-|--8---X--8---X--8---X--8---X--8--X--8--X--8--X--8----
E-|-|------------------------------6--X--6--X--6--X--6----

E-|-|-----------------------------------------------------
B-|-|-----------------------------------------------------
G-|-|--10--X--10--X--10--X--10--X--5--X--5--X--5--X--5----
D-|-|--10--X--10--X--10--X--10--X--5--X--5--X--5--X--5----
A-|-|--8---X--8---X--8---X--8---X--3--X--3--X--3--X--3----
E-|-|-----------------------------------------------------

2ND VERSE & CHORUS: ("I won't pay, I won't pay ya....")
[ Tab from: http://www.guitartabs.cc/tabs/o/offspring/why_dont_you_get_a_job_crd.html ]
E-|-|-----------------------------------------------------
B-|-|-----------------------------------------------------
G-|-|--10--X--10--X--10--X--10--X-------------------------
D-|-|--10--X--10--X--10--X--10--X--8--X--8--X--8--X--8----
A-|-|--8---X--8---X--8---X--8---X--8--X--8--X--8--X--8----
E-|-|------------------------------6--X--6--X--6--X--6----

E-|-|-----------------------------------------------------
B-|-|-----------------------------------------------------
G-|-|--10--X--10--X--5--X--5--X--10--X--10--X--10--X--10--
D-|-|--10--X--10--X--5--X--5--X--10--X--10--X--10--X--10--
A-|-|--8---X--8---X--3--X--3--X--8---X--8---X--8---X--8---
E-|-|-----------------------------------------------------

BRIDGE: ("Well, I guess it ain't easy doing nothing at all..."):

E-|-|----------------------------------------------------
B-|-|----------------------------------------------------
G-|-|----------------------------------------------------
D-|-|--8--X--8--X--8--X--8--X--8--X--8--X--8--X--8-------
A-|-|--8--X--8--X--8--X--8--X--8--X--8--X--8--X--8-------
E-|-|--6--X--6--X--6--X--6--X--6--X--6--X--6--X--6-------

E-|-|-------------------------------------------------------
B-|-|-------------------------------------------------------
G-|-|--10--X--10--X--10--X--10--X--10--X--10--X--10--X--10--
D-|-|--10--X--10--X--10--X--10--X--10--X--10--X--10--X--10--
A-|-|--8---X--8---X--8---X--8---X--8---X--8---X--8---X--8---
E-|-|-------------------------------------------------------

E-|-|----------------------------------------------------
B-|-|----------------------------------------------------
G-|-|----------------------------------------------------
D-|-|--8--X--8--X--8--X--8--X--8--X--8--X--8--X--8-------
A-|-|--8--X--8--X--8--X--8--X--8--X--8--X--8--X--8-------
E-|-|--6--X--6--X--6--X--6--X--6--X--6--X--6--X--6-------

E-|-|----------------------------------------------------
B-|-|----------------------------------------------------
G-|-|--------------------------5--X--5--X--5--X--5-------
D-|-|--5--X--5--X--5--X--5--X--5--X--5--X--5--X--5-------
A-|-|--5--X--5--X--5--X--5--X--3--X--3--X--3--X--3-------
E-|-|--3--X--3--X--3--X--3--X----------------------------

          G-10-
End with  D-10-
          A-8--
          E----

Send any comments, questions and stuff at ichorid_gr@yahoo.com
Comments