Offspring - Why Dont You Get A Job Chords & Tabs

 

Why Dont You Get A Job Chords & Tabs

Offspring Chords & Tabs

Version: 1 Type: Bass Tab 2 ratings
1 star 2 stars 3 stars 4 stars 5 stars
comments

Why Dont You Get A Job Bass Tab

WHY DON'T YOU GET A JOB?

Tab by: Felix Pflaum 

Finally, this is a Offspring-Song where the bassman
is really included.

Verse (play all notes 6X)
G-------------------------------------------------------------------|
D-------------------------------------------------------------------|
A-----------1---1-----------3---3-----------1---1-------3-----------|
E---1---1-----------1---1-----------1---1-----------1-------1---1---|

Chorus (2x)
G--------------------------------0--------------------------------|
D---3-3-0---0-3-0------------0-3---3--3-0--------0-3--3-0---0-3---|
A---------3-------3--1-1-1-3---------------3-3-3----------3-------|
E-----------------------------------------------------------------|

Play verse and chorus.
[ Tab from: http://www.guitartabs.cc/tabs/o/offspring/why_dont_you_get_a_job_btab.html ]
Chorus (it's like a bridge to the bridge)
G-------------------------------0-----------------------------------|
D---3-3-0---0-3-0-----------0-3---3--3-0-------0-3--3-0---0-3-0-----|
A---------3-------3-1-1-1-3--------------3-3-3----------3-------3---|
E-------------------------------------------------------------------|

Bridge (Well, I guess it ain't easy...)                          
G------------------------------------------------------------------->
D---------3-5-3-2-3-------3-5-3-2-3-----------------3-3-2-2-0-0----->
A---1-1-1-----------1-1-1-------------------2-3-2-3-------------3-3->
E-----------------------------------1-1-1-1-------------------------> 

>bridge
>---------------------------------------------------------------------|
>---------3-5-3-2-3-------3-5-3-2-3-----------------------------------|
>---1-1-1-----------1-1-1---------------------------3-3-3-3-3-1-0-----|
>-----------------------------------3-3-3-3-3-3-3-3---------------3---|

Then play verse and chorusX3.

Chorus *=play 14X before it ends with the trumpet
G-------------------------------0--------------------------------------------|
D---3-3-0---0-3-0-----------0-3---3--30-------0--*---------------------------|
A---------3-------3-1-1-1-3-------------3-3-3---3----------------3-1-0-------|
E----------------------------------------------------------------------3-1---|

Comments