Offspring - When You're In Prison Chords & Tabs

 

When You're In Prison Chords & Tabs

Offspring Chords & Tabs

Version: 1 Type: Tab 0 ratings
1 star 2 stars 3 stars 4 stars 5 stars
comments

When You're In Prison Tab

   
#----------------------------------PLEASE NOTE---------------------------------#
#This file is the author's own work and represents their interpretation of the #
#song. You may only use this file for private study, scholarship, or research. #
#------------------------------------------------------------------------------#

-------------------------------------------------------------
The Offspring - When You're In Prison
-------------------------------------------------------------
Tabbed By Rob
Standart Tuning

------------
Chords
------------

   Eb   Fm   Bb  Bb/D  G#  G#m
e|----------------------------------
B|--8---9----6---3-----4----4-------
G|--8---10---7---3-----5----4-------
D|--8---10---8---3-----6----6-------
A|--6---8----8---5-----6----6-------
E|-----------6---------4----4-------

-----------
Intro
-----------

   Eb
e|-------------------------------
B|-----8-----8------8-----8------
G|-----8-----8------8-----8------
D|-----8-----8------8-----8------
A|-6-------------6---------------
E|-------6-------------6---------

-----------
Verse 1
-----------

   Eb            Fm         Bb     Bb/D   Eb
e|----------------------------------------------------------
B|-----8-----8------9-----------------3-------8-----8-------
G|-----8-----8------10---------7------3-------8-----8-------
D|-----8-----8------10---------8------3-------8-----8-------
A|-6-------------8-------------8---5------6-----------------
E|-------6--------------4-5-6--------------------6----------

[ Tab from: http://www.guitartabs.cc/tabs/o/offspring/when_youre_in_prison_tab.html ]
   Eb            Fm         Bb     Bb/D   Eb
e|-----------------------------------------------------
B|-----8-----8------9-----------------3-------8--------
G|-----8-----8------10---------7------3-------8--------
D|-----8-----8------10---------8------3-------8--------
A|-6-------------8-------------8---5------6------------
E|-------6--------------4-5-6--------------------6-5---


-----------
Chorus
-----------

   G#           G#m          Eb             
e|------------------------------------------------------
B|-------------------------------8-----8------8---------
G|---5------5------4------4------8-----8------8---------
D|---6------6------6------6------8-----8------8---------
A|---6------6------6------6---6------------6------------
E|-4-----4------4------4------------6------------6-5----

   G#           G#m           Fm              Bb
e|----------------------------------------------------
B|--------------------------------9-------9-----------
G|---5------5------4------4-------10------10---7------
D|---6------6------6------6-------10------10---8------
A|---6------6------6------6----8-------8-------8------
E|-4-----4------4------4-----------------------6------

e|-----------------
B|-----------------
G|-----------------
D|-10-8------------
A|------11-10-8----
E|-----------------

-----------
Verse 2
-----------

(Same as previous)

-----------
Chorus
-----------

(Same as previous)

-----------
Verse 3
-----------

(Same as previous)

-----------
Outro
-----------

  Bb     Bb/D   Eb
e|------------------------------
B|-----------3-----8-----8------
G|----7------3-----8-----8------
D|----8------3-----8-----8------
A|----8---5-----6-----6---------
E|-6----------------------------

  Bb     Bb/D   G#           G#m             Eb
e|-----------------------------------------------------------------------
B|-----------3----------------------------------8-----8-------8-8-8-8----
G|----7------3------5------5------4------4------8-----8-------8-8-8-8----
D|----8------3------6------6------6------6------8-----8-------8-8-8-8----
A|----8---5---------6------6------6------6---6-----6-----6----6-6-6-6----
E|-6------------4-------4-----4-------4----------------------------------
Comments