Offspring - What Happened To You Chords & Tabs

 

What Happened To You Chords & Tabs

Offspring Chords & Tabs

Version: 6 Type: Tab 0 ratings
1 star 2 stars 3 stars 4 stars 5 stars
comments

What Happened To You Tab

Tablatura de NICO M. (nicokbbl@hotmail.com)

Artista: The Offspring
Cancion: What Happened to You?
Album: Smash (1994) 



intro
1|---------------------------------------|
2|---------------------------------------|
3|-------10*------10*-----10*-----10-9-8-|
4|-8-10--10*--10*-10*--8*-10*-10*-10-9-8-|
5|-8-10---8*--10*--8*--8*--8*-10*--8-7-6-|
6|-6--8--------8*------6*------8*--------|



1|---------------|
2|---------------|
3|-7*--------10*-|x5
4|-7*-8*-10*-10*-|
5|-5*-8*-10*--8*-|
6|----6*--8*-----|


    Before you started tokin' you used to have a brain
    But now you don't get even the simplest of things
    I can draw a little picture
    Or even use my hands
    I try to explain but you just don't understand


(coro) (chorus)
1|---------------|
2|---------------|
3|-7*----10*-----|x4
4|-7*-8*-10*-10*-|
5|-5*-8*--8*-10*-|
6|----6*------8*-|


    Man you're really losin' it
    And you've really done a lot of junk now
    But you keep on abusin' it
    What in the world happened to you


1|---------------------------------------|
2|---------------------------------------|
3|-------10*------10*-----10*-----10-9-8-|
4|-8-10--10*--10*-10*--8*-10*-10*-10-9-8-|
5|-8-10---8*--10*--8*--8*--8*-10*--8-7-6-|
6|-6--8--------8*------6*------8*--------|


1|---------------|
2|---------------|
3|-7*--------10*-|x5
4|-7*-8*-10*-10*-|
5|-5*-8*-10*--8*-|
6|----6*--8*-----|


    It's bad enough you do it to yourself
    But taking someone with you
    Well you know that's something else
    I say I'm not that kind of person
    I'm not that kind of man
    I try to explain but you just don't understand



(coro) (chorus)
1|---------------|
2|---------------|
3|-7*----10*-----|x4
4|-7*-8*-10*-10*-|
5|-5*-8*--8*-10*-|
6|----6*------8*-|


    Man you're really losin' it
    And you've really done a lot of junk now
    But you keep on abusin' it
    What in the world happened to you


1|---------------------------------------|
2|---------------------------------------|
3|-------10*------10*-----10*-----10-9-8-|
4|-8-10--10*--10*-10*--8*-10*-10*-10-9-8-|
5|-8-10---8*--10*--8*--8*--8*-10*--8-7-6-|
6|-6--8--------8*------6*------8*--------|


solo
1|-------------------------------------|
2|-------------------------------------|
3|-----------5--7--5--7b9r7--5---5--7--|
4|------5--7-------------------7-------|
5|-5--8--------------------------------|
6|-------------------------------------|
[ Tab from: http://www.guitartabs.cc/tabs/o/offspring/what_happened_to_you_tab_ver_6.html ]
1|---------------------------------|
2|--------------------------8------|
3|-----------5--7--5--7b9r7---7--5-|
4|------5--7-----------------------|
5|-5--8----------------------------|
6|---------------------------------|

1|-------------------------------------------------------10-----|
2|-------------------------------------------------10-13----13--|
3|--------------------10--12--10--12b14r12--10--12--------------|
4|-------------10-12--------------------------------------------|
5|-------10-12--------------------------------------------------|
6|-10-13--------------------------------------------------------|


1|-10b11r10--13-10-13b15r13--15-13-15b17--15b17--15-13------------13-|
2|-----------------------------------------------------15--13--15----|
3|-------------------------------------------------------------------|
4|-------------------------------------------------------------------|
5|-------------------------------------------------------------------|
6|-------------------------------------------------------------------|

(coro) (chorus)
1|---------------|
2|---------------|
3|-7*----10*-----|x4
4|-7*-8*-10*-10*-|
5|-5*-8*--8*-10*-|
6|----6*------8*-|

    Man you're really losin' it
    And you've really done a lot of junk now
    But you keep on abusin' it
    What in the world happened to you

1|---------------------------------------|
2|---------------------------------------|
3|-------10*------10*-----10*-----10-9-8-|
4|-8-10--10*--10*-10*--8*-10*-10*-10-9-8-|
5|-8-10---8*--10*--8*--8*--8*-10*--8-7-6-|
6|-6--8--------8*------6*------8*--------|


1|---------------|
2|---------------|
3|-7*--------10*-|x5
4|-7*-8*-10*-10*-|
5|-5*-8*-10*--8*-|
6|----6*--8*-----|


    I might be sympathetic or cut a little slack
    If I thought that you were willing to give a little back
    But you do it in the morning
    You do it in the night
    You lie to refrain from just facing your life
    So I'll see you tomorrow
    You'll be gackin' up again
    I'll see you in a coffin by the time your wad is spent
    I think of all the times that I tried to lend a hand
    I try to explain but you just don't understand  


(coro) (chorus)
1|---------------|
2|---------------|
3|-7*----10*-----|x4
4|-7*-8*-10*-10*-|
5|-5*-8*--8*-10*-|
6|----6*------8*-|


    Man you're really losin' it
    And you've really done a lot of junk now
    But you keep on abusin' it
    What in the world happened to... 
    What in the world happened to...
    What in the world happened to you


final
1|------------------------------------------|
2|------------------------------------------|
3|--------10*-----10*----10*-----10-10-x-10-|
4|-8-10---10*-10*-10*-8*-10*-10*-10-10-x-10-|
5|-8-10----8*-10*--8*-8*--8*-10*--8--8-x--8-|
6|-6--8--------8*-----6*------8*------------|
Comments