Offspring - What Happened To You Chords & Tabs

 

What Happened To You Chords & Tabs

Offspring Chords & Tabs

Version: 4 Type: Tab 0 ratings
1 star 2 stars 3 stars 4 stars 5 stars
comments

What Happened To You Tab

Song: What Happened to You?
Artist: The Offspring
Album: Smash
As tabbed by Joe Muggah

Riff
e---------------------------------------------------------
B---------------------------------------------------------
G-----------------10--10----------10--10--------10--10----
D--8----8-10--10--10--10--10--10--10--10--8--8--10--10----
A--8----8-10--10---8---8--10--10---8---8--8--8---8---8----
E--6----6--8---8-----------8---8----------6--6------------
("What in the world happened to you?")

(continued)
e---------------------------------------------------------
B---------------------------------------------------------
G----------10--9--8---------------------------------------
D--10--10--10--9--8---------------------------------------
A--10--10---8--7--6---------------------------------------
E---8---8-------------------------------------------------

Verse (played very ska-like)       end on
e--x-1-x-1--x-1-x-1--x-0-x-1-x-0--|--1----1----0--0-0-0-0-
B--x-3-x-3--x-3-x-3--x-1-x-1-x-1--|--3----3----1--1-1-1-1-
G--x-2-x-2--x-3-x-3--x-0-x-0-x-0--|--2----3----0--0-0-0-0-
D-----------x-3-x-3--x-2-x-2-x-2--|-------3----2--2-2-2-2-
A--------------------x-3-x-3-x-3--|------------3--3-3-3-3-
E---------------------------------|-----------------------
("Before he started tokin'...")
[ Tab from: http://www.guitartabs.cc/tabs/o/offspring/what_happened_to_you_tab_ver_4.html ]
Chorus
e--x-1-x-1--x-1-x-1--x-1-x-1-x-0-x-0----------------------
B--x-3-x-3--x-3-x-3--x-1-x-1-x-1-x-1----------------------
G--x-2-x-2--x-3-x-3--x-3-x-3-x-0-x-0----------------------
D-----------x-3-x-3--x-4-x-4-x-2-x-2----------------------
A----------------------------x-3-x-3----------------------
E---------------------------------------------------------
("Hey...and you're really losing it...")

Solo
e---------------------------------------------------------
B---------------------------------------------------------
G---------------------------------------------------------
D--------------10h12-10--14\12--10------10---12-----------
A--------10h12-----------------------12-------------------
E--10h13--------------------------------------------------

(continued)
e---------------------------------------------------------
B---------------------------------------------------------
G---------------------------------12----------------------
D--------------10h12-10--14^--14------14--12--------------
A--------10h12--------------------------------------------
E--10h13--------------------------------------------------

(continued)
e---------------------------------------------------10----
B-----------------------------------------10-13-10--------
G--------------10-12-10--14\12--10-12-10------------------
D--------10h12--------------------------------------------
A--10h12--------------------------------------------------
E---------------------------------------------------------

(continued)
e--13-10--15-13--17^--17^--17-15-13-10--10-1--------------
B---------------------------------------------------------
G---------------------------------------------------------
D---------------------------------------------------------
A---------------------------------------------------------
E---------------------------------------------------------


Riff
Verse
Chorus
Riff
Verse
Chorus
Riff
Verse, Solo
Chorus
Riff
Verse
Chorus
Riff
Comments