Offspring - What Happened To You Chords & Tabs

 

What Happened To You Chords & Tabs

Offspring Chords & Tabs

Version: 2 Type: Tab 0 ratings
1 star 2 stars 3 stars 4 stars 5 stars
comments

What Happened To You Tab

   
#----------------------------------PLEASE NOTE---------------------------------#
#This file is the author's own work and represents their interpretation of the #
#song. You may only use this file for private study, scholarship, or research. #
#------------------------------------------------------------------------------##
"What happened to you?" - Offspring
From the album Smash
Tab transcription by Mark van 't Zet (tmvtzet@cs.vu.nl)



NOTE

  This is played in the usual punk kind of fashion
  so don't strum all the strings of the chords below.
  Mostly only the 3 strings lowest in pitch (which gives
  the incredibly complex note formation known as the powerchord)

USED CHORDS

  Name   E A D G B E

  Bb     6-8-8-7-6-6-
  C      8-10109-8-8-
  Dm     x-5-7-7-6-5-
  E      x-7-9-9-9-7-
  Eb     x-6-8-8-8-6-
  F      x-8-1010108-

TAB NOTATION
  _
  X      play staccato
  XbY    bend from fret X to pitch Y
  XrY    release from bend at pitch X to fret Y
  X...X  hold bend at pitch X
   



INTRO  

  Bb          C                 
  What in the world happened to 
  F  Bb  F   C
  -------------
  F  Bb  F E Eb

VERSE 1 

    Dm               Bb         C              F
  Before you started---------------------------
 

CHORUS

  Dm    Bb              F      C
  (Hey, hey)-----------------------------
 
  
VERSE 2
  
  (It's not enough to do it ect)
  
CHORUS
  
  (Hey, hey) Now you're really losing it..
  
SOLO - Over verse chords
[ Tab from: http://www.guitartabs.cc/tabs/o/offspring/what_happened_to_you_tab_ver_2.html ]
  --------------------------------------------------------
  -------------------------------------_------------------
  ------------5--7--5--7b9r7--5-----5--7------------------
  -------5--7--------------------7------------------------
  --5--8--------------------------------------------------
  --------------------------------------------------------

  --------------------------------------------------------
  ------------------------------8------_------------------
  ------------5--7--5--7b9...9----9r7--5------------------
  -------5--7---------------------------------------------
  --5--8--------------------------------------------------
  --------------------------------------------------------

  -------------------------------------------------10-----
  -------------------------------------------10-13----13--
  --------------10--12--10--12b14r12--10--12--------------
  --------10-12-------------------------------------------
  --10-12-------------------------------------------------
  --------------------------------------------------------

  --10b11r10---13-10-13---15-13-15b17---15b17---15-13-----
  --------------------------------------------------------
  --------------------------------------------------------
  --------------------------------------------------------
  --------------------------------------------------------
  --------------------------------------------------------
              __
  ------------13------------------------------------------
  ---15-13-15---------------------------------------------
  --------------------------------------------------------
  --------------------------------------------------------
  --------------------------------------------------------
  --------------------------------------------------------
Comments