Offspring - What Happened To You Chords & Tabs

 

What Happened To You Chords & Tabs

Offspring Chords & Tabs

Version: 2 Type: Bass Tab 0 ratings
1 star 2 stars 3 stars 4 stars 5 stars
comments

What Happened To You Bass Tab

Artist:     Offspring
Title:      What Happened To You
Album:      Smash
Tabbed by:  Jeff Feasel


Intro
G-------------------------------
D-------------------------------
A-1-------1---3-----------------
E-------------------------------

G---------------------------------------------------------------
D-2/3---3---------2/3---3---------2/3---3---------3---2---1-----
A---------3-3---3---------1-1---1---------3-3---3---------------
E---------------------------------------------------------------

Verse
G-------------------------------|-------------------------------
D-0-----------0-----------3---2-|-0-------3---2-----------3---2-
A-----0---1-------3---0h3-------|-----0-----------3---0h3-------
E-------------------------------|-------------------------------

G-------------------------------|-------------------------------
D-0-----------0-----------3---2-|-0.----------------------------
A-----0---1-------3---0h3-------|---------1.------3-------------
E-------------------------------|-------------------------------
				NOTE: . = staccato
[ Tab from: http://www.guitartabs.cc/tabs/o/offspring/what_happened_to_you_btab_ver_2.html ]
Chorus
G-------------------------------|-------------------------------
D-0-----------0-----------------|-0-----------0---3-3-2-3-------
A-----0---1-----------0---3---0-|-----0---1---------------5-4-3-
E-----------------1-------------|-------------------------------

G-------------------------------|-------------------------------
D-0-----------0-----------------|-------------------------------
A-----0---1-----------0---3---0-|-1-------1---3-----------------
E-----------------1-------------|-------------------------------

G---------------------------------------------------------------
D-2/3---3---------2/3---3---------2/3---3---------3---2---1-----
A---------3-3---3---------1-1---1---------3-3---3---------------
E---------------------------------------------------------------

Ending:
G-------------------------------|-------------------------------
D-------------------------------|-------------------------------
A-1-------1---3---------------3-|-1-------1---3---------------3-
E-------------------------------|-------------------------------

G-------------------------------|-------------------------------
D-------------------------------|-2/3---3---------3-----3.------
A-1-------1---3---------------3-|---------3-3---3---3-3---------
E-------------------------------|-------------------------------

Tabbed by:  Jeff Feasel  04-18-00
Comments