Offspring - Way Down The Line Chords & Tabs

 

Way Down The Line Chords & Tabs

Offspring Chords & Tabs

Version: 3 Type: Tab 0 ratings
1 star 2 stars 3 stars 4 stars 5 stars
comments

Way Down The Line Tab

   
Band-The Offspring
Song-Way down the line
Tuning-Standerd(E,A,D,G,B,E)

~Key~
/=slide
~=ring
...=palm muted
h=hammer on
*=play 7 or 8 times

INTRO
E|---------------------------------|
B|---------------------------------|
G|-7~------7~--------7~------7~--/-|
D|-7~--5~--7~--5-7---7~--7~--7~--/-|
A|-5~--5~--5~--5-7---5~--7~--5~--/-|
E|-----3~------3-5-------5~--------|

VERSE
E|----------------------------------------|
B|----------------------------------------|
G|----------------------------------------|
D|-12-12/10--12-12--10/12-12--10/12-12-10-|
A|-12-12/10--12-12---8/10-10---8/10-10-10-|
E|-10-10/-8--10-10----------------------8-|

VERSE II
E|-----------------------------------------------------------------|
B|-----------------------------------------------------------------|
G|-7-7-7-7-7-7-7-7-----------------7-7-7-7-7-7-7-7-----------------|
D|-7-7-7-7-7-7-7-7-5-5-5-5-5-5-5-5-7-7-7-7-7-7-7-7-5-5-5-5-5-5-5-5-|
A|-5-5-5-5-5-5-5-5-5-5-5-5-5-5-5-5-5-5-5-5-5-5-5-5-5-5-5-5-5-5-5-5-|
E|-----------------3-3-3-3-3-3-3-3-----------------3-3-3-3-3-3-3-3-|
PM.................................................................

E|---------------------------------|
B|---------------------------------|
G|-7-7-7-7-7-7-7-7-----------------|
D|-7-7-7-7-7-7-7-7-5-5-5-5-7-7-7-7-|
A|-5-5-5-5-5-5-5-5-5-5-5-5-7-7-7-7-|
E|-----------------3-3-3-3-5-5-5-5-|
PM................

CHORUS I
E|--------------------------------
B|--------------------------------
G|-7*----7*-----------------7*----
D|-7*-5*-7*-5-5-5-5-7-7-7-7-7*-7*-
A|-5*-5*-5*-5-5-5-5-7-7-7-7-5*-7*-
E|----3*----3-3-3-3-5-5-5-5----5*-
[ Tab from: http://www.guitartabs.cc/tabs/o/offspring/way_down_the_line_tab_ver_3.html ]
CHORUS II
E|-----------------------------------------------------------------|
B|-----------------------------------------------------------------|
G|-7*----7*------------------7*----7*-7*--7*----7*-----------------|
D|-7*-5*-7*-5-5-5-5-7-7-7-7--7*-7*-7*-7*--7*-5*-7*-5-5-5-5-7-7-7-7-|
A|-5*-5*-5*-5-5-5-5-7-7-7-7--5*-7*-5*-5*--5*-5*-5*-5-5-5-5-7-7-7-7-|
E|----3*----3-3-3-3-5-5-5-5-----5*-----------3*----3-3-3-3-5-5-5-5-|

E|-------------|
B|-------------|
G|-7*----7*-7*-|
D|-7*-7*-7*-7*-|
A|-5*-7*-5*-5*-|
E|----5*-------|

BRIDGE I
E|-------------------------------------------|
B|-------------------------------------------|
G|-/10*--12*---------------------------------|
D|-/10*--12*--10/12-12/10/12--10/12-12/10/12-|
A|-/-8*--10*--10/12-12/10/12--10/12-12/10/12-|
E|-------------8/10-10/-8/10---8/10-10/-8/10-|

Bridge II
E|-------------------------------------------------|
B|-------------------------------------------------|
G|-/10*--12*--7*--7*--10*--12-12-12-12-14-14-14-14-|
D|-/10*--12*--7*--7*--10*--12-12-12-12-14-14-14-14-|
A|-/-8*--10*--5*--5*---8*--10-10-10-10-12-12-12-12-|
E|-------------------------------------------------|

OUTRO(2x)
E|---2---3h5-2--------9----11h12----7---8h10-7--------9----11h12-|
B|-3---3-------3--/10---10--------8---8--------8--/10---10-------|
G|---------------------------------------------------------------|
D|---------------------------------------------------------------|
A|---------------------------------------------------------------|
E|---------------------------------------------------------------|

FINAL NOTE
E|-10--|
B|-10--|
G|-11--|
D|-12--|
A|-12--|
E|-10--|



Tabbed by Jordan Nordberg
Questions or comments E-mail me at:
A_Tragedy_Called_Life@Hotmail.com
                OR
A_Tragedy_Called_Life@Stewiesminions.com

P.S-Offsprings Rules
Comments