Offspring - Way Down The Line Chords & Tabs

 

Way Down The Line Chords & Tabs

Offspring Chords & Tabs

Version: 2 Type: Tab 0 ratings
1 star 2 stars 3 stars 4 stars 5 stars
comments

Way Down The Line Tab

   
 
-------------------------------------------------------------------------------
			     Way down the line - Offspring
-------------------------------------------------------------------------------

Tabbed By : Zero is great man
Tuning:EADGBe

Ok this is everything except the solo in the outro.
play with distortion.

Intro: (Nothing changes cause it's all the same...)
e|-----------------||-------------------|
B|-----------------||-------------------|
G|-7---7-----7---7-||-------------------|
D|-7-5-7-5-7-7-7-7-||-7-8-9-10-11-12-4~-|
A|-5-5-5-5-7-5-7-5-||-------------------|
E|---3---3-5---5---||-------------------|

Verse:
e|-----------||-----------|
B|-----------||-8-10-7-10-|
G|-5-7-7-5-7-||-x--x-x-x--|
D|-5-7-7-5-7-||-5--7-5-7--|
A|-3-5-5-3-5-||-----------|
E|-----------||-----------|

Pre-Chorus:(An Angry man gets drunk../The kid is never gonna have a dad..)
e|---------------------------------------------------------------|
B|---------------------------------------------------------------|
G|-7-7-7-7-----------7-7-7-7-----------7-7-7-7-------------------|
D|-7-7-7-7--5-5-5-5--7-7-7-7--5-5-5-5--7-7-7-7--5-5-5-5--7-7-7-7-|
A|-5-5-5-5--5-5-5-5--5-5-5-5--5-5-5-5--5-5-5-5--5-5-5-5--7-7-7-7-|
E|----------3-3-3-3-----------3-3-3-3-----------3-3-3-3--5-5-5-5-|
 |------------------p.m------------------------|
[ Tab from: http://www.guitartabs.cc/tabs/o/offspring/way_down_the_line_tab_ver_2.html ]
Chorus:(Nothing changes cause its all the same)
e|----------------------------------------------------------------|
B|----------------------------------------------------------------|
G|-7-7-7-7-----------7-7-7-7------------7-7-7-7-----------7-7-7-7-|
D|-7-7-7-7--5-5-5-5--7-7-7-7--5-5--7-7--7-7-7-7--7-7-7-7--7-7-7-7-|
A|-5-5-5-5--5-5-5-5--5-5-5-5--5-5--7-7--5-5-5-5--7-7-7-7--5-5-5-5-|
E|----------3-3-3-3-----------3-3--5-5-----------5-5-5-5----------|

Bridge:(And well-fare moms have kids on welfare...)
e|----------------------------------------|
B|-7-7-7-7--9-9-9-9-----------------------|
G|-7-7-7-7--9-9-9-9--5-7-7-5-7--5-7-7-5-7-|
D|-5-5-5-5--7-7-7-7--5-7-7-5-7--5-7-7-5-7-|
A|-------------------3-5-5-3-5--3-5-5-3-5-|(x2)
E|----------------------------------------|

(You know it's never gonna end...)
e|-----------------------------------------------------|
B|-----------------------------------------------------|
G|-7-7-7-7--9-9-9-9------------------------------------|
D|-5-5-5-5--7-7-7-7--7-7-7-7-7-7-7-7--5-5-5-5--7-7-7-7-|
A|-------------------5-5-5-5-5-5-5-5--5-5-5-5--7-7-7-7-|
E|------------------------------------3-3-3-3--5-5-5-5-|

Outro:
e|-------------------------------------------|
B|-------------------------------------------|
G|-7-7-----------------7-7-----------------7-|
D|-7-7--7-7--5-5--7-7--7-7--7-7--5-5--7-7--7-|
A|-5-5--7-7--5-5--7-7--5-5--7-7--5-5--7-7--5-|
E|------5-5--3-3--5-5-------5-5--3-3--5-5----|


| /  slide up
| \  slide down
| h  hammer-on
| p  pull-off
| ~  vibrato
| +  harmonic
| x  Mute note

Ok this is not a hard tab to play, This is on of my favorite offspring songs,
hopes it's yours too, please feel free to comment, though, I am pretty dang sure
this is 100% correct. I will post the outro solo when I finally figure it out. Enjoy!
===============================================================================
Comments