Offspring - Way Down The Line Chords & Tabs

 

Way Down The Line Chords & Tabs

Offspring Chords & Tabs

Version: 1 Type: Bass Tab 0 ratings
1 star 2 stars 3 stars 4 stars 5 stars
comments

Way Down The Line Bass Tab

   
-------------------------------------------------------------------------------
			     Way down the line - Offspring
-------------------------------------------------------------------------------

Tabbed By : Zero is great man
Tuning:EADG

Intro: (Nothing changes cause it's all the same...)
G|-----------------|
D|-----------------|
A|-5---5-----5---5-|
E|---3---3-5---5---|

Verse:
G|-----------|
D|-----------|
A|-3-5-5-3-5-|
E|-----------|

Pre-Chorus:(An Angry man gets drunk../The kid is never gonna have a dad..)
G|---------------------------------------------------------------|
D|---------------------------------------------------------------|
A|-5-5-5-5-----------5-5-5-5-----------5-5-5-5-------------------|
E|----------3-3-3-3-----------3-3-3-3-----------3-3-3-3--5-5-5-5-|
[ Tab from: http://www.guitartabs.cc/tabs/o/offspring/way_down_the_line_btab.html ]
Chorus:(Nothing changes cause its all the same)
G|----------------------------------------------------------------|
D|----------------------------------------------------------------|
A|-5-5-5-5-----------5-5-5-5------------5-5-5-5-----------5-5-5-5-|
E|----------3-3-3-3-----------3-3--5-5-----------5-5-5-5----------|

Bridge:(And well-fare moms have kids on welfare...)
G|----------------------------------------|
D|-5-5-5-5--7-7-7-7-----------------------|
A|-------------------3-5-5-3-5--3-5-5-3-5-|(x2)
E|----------------------------------------|

(You know it's never gonna end...)
G|----------------------------------------------------|
D|-5-5-5-5--7-7-7-7-----------------------------------|
A|-------------------5-5-5-5-5-5-5-5------------------|
E|------------------------------------3-3-3-3--5-5-5-5|

Outro:
G|-------------------------------------------|
D|-------------------------------------------|
A|-5-5-----------------5-5-----------------5-|
E|------5-5--3-3--5-5-------5-5--3-3--5-5----|


| /  slide up
| \  slide down
| h  hammer-on
| p  pull-off
| ~  vibrato
| +  harmonic
| x  Mute note

Ok this is not a hard tab to play, This is on of my favorite offspring songs,
hopes it's yours too, please feel free to comment, though, I am pretty dang sure
this is 100% correct. Enjoy!
===============================================================================
Comments