Offspring - Want You Bad Chords & Tabs

 

Want You Bad Chords & Tabs

Offspring Chords & Tabs

Version: 8 Type: Tab 0 ratings
1 star 2 stars 3 stars 4 stars 5 stars
comments

Want You Bad Tab

Offspring
Want you bad.
Tabbed by Dan Wagner, danno_029@hotmail.com.
  
I only have the chords so far, so the solo and the other fills would be appreciated.  The new album rocks and this is the best song, I have to learn to play it for a girl in my band so ASAP on those ohter parts please :)

Want You Bad
Offspring

Intro Repeat 4x

e----------------------------
b----------------------------
g--9-xx----------------------
d--9-xx-9-xx-7-xx-11-9-------
a--7-xx-9-xx-7-xx-11-9-------
E----xx-7-xx-5-xx-9--7-------

  End on E

Verse Chords (palm muted)
[ Tab from: http://www.guitartabs.cc/tabs/o/offspring/want_you_bad_tab_ver_8.html ]
G--9-xxx-9-------------------------------------
D--9-xxx-9-11-xxx-11-9-xxx-9-x-7-x-9-x-11-x-9--
A--7-xxx-7-11-xxx-11-9-xxx-9-x-7-x-9-x-11-x-9--
E----------9--xxx-9--7-xxx-7-x-5-x-7-x-9--x-7--

Bridge "Your one vice...."

e---------------------------
B---------------------------
G---------------------------
D-11--9--7--9--xxx----------
A-11--9--7--9--xxx----------
E-9---7--5--7--xxx----------

Chorus

e-------------------------------------
B-------------------------------------
G--999-----------------------------9--
D--999--111111-999--77-6-7-11-9----9--
A--777--111111-999--77-6-7-11-9----7--
E-------9-9-9--777--55-4-5-9--7-------


This might just be all wrong cause I have never tabbed before, feel free to correct the whole thing.
thanx, Dan
 
:: Ultimate Guitar Archive :: 
http://www.ultimate-guitar.com
Comments