Offspring - Want You Bad Chords & Tabs

 

Want You Bad Chords & Tabs

Offspring Chords & Tabs

Version: 4 Type: Tab 0 ratings
1 star 2 stars 3 stars 4 stars 5 stars
comments

Want You Bad Tab

WANT YOU BAD 
BY THE OFFSPRING
TABBED BY KEVIN GRANT 
IF YOU HAVE ANY PROBLEMS WITH THIS TAB OR ANY OFFSPRING REQUESTS THEN
EMAIL ME AT kingkot1@uk.dreamcast.com


Intro

---------------------------------------------------------------------
---------------------------------------------------------------------
-99-------4-6--------9-99999999999-9999--9---------------------------
-99-99-77-4-6--x4----9-99999999999-9999--9---------------------------
-77-99-77-2-4--------7-77777777777-7777--7---------------------------
----77-55------------------------------------------------------------
		       PM..............

Verse


---------------------------------------------------------------------
---------------------------------------------------------------------
--9--999999999999--9--6-66666666666--6--4-444444444444---------------
--9--999999999999--9--6-66666666666--6--4-444444444444---------------
--7--777777777777--7--4-44444444444--4--2-222222222222---------------	
---------------------------------------------------------------------
     PM..........       PM.........       PM..........

Verse ending 1

---------------------------------------------------------------------	
---------------------------------------------------------------------	
---------------------------------------------------------------------	
----7-6-7-9----------------------------------------------------------	
----7-6-7-9----------------------------------------------------------	
----5-4-5-7----------------------------------------------------------

Verse ending 2

---------------------------------------------------------------------	
---------------------------------------------------------------------	
---------------------------------------------------------------------	
----xx7xx6xx7xx9-----------------------------------------------------	
----xx7xx6xx7xx9-----------------------------------------------------	
----xx5xx4xx5xx7-----------------------------------------------------	

Play the verse once with ending one then play the verse again with 
ending two.

Bridge

---------------------------------------------------------------------	
---------------------------------------------------------------------	
------------666-6666----------666-4-444444---------------------------	
---777-9999-666-6666-777-9999-666-4-444444---------------------------	
---777-9999-444-7777-777-9999-444-2-222222---------------------------	
---555-7777----------555-7777----------------------------------------	
		                    PM....

Chorus
[ Tab from: http://www.guitartabs.cc/tabs/o/offspring/want_you_bad_tab_ver_4.html ]
---------------------------------------------------------------------	
---------------------------------------------------------------------	
99999999-66666666-44444444-------------------------------------------	
99999999-66666666-44444444---7-7s6-6s7-7s9---------------------------	
77777777-44444444-22222222---7-7s6-6s7-7s9---------------------------	
-----------------------------5-5s4-4s5-5s7---------------------------
		Then
---------------------------------------------------------------------	
---------------------------------------------------------------------	
99999999-66666666-44444444-------------------------------------------	
99999999-66666666-44444444---xx7-xx6-xx7-xx9-------------------------	
77777777-44444444-22222222---xx7-xx6-xx7-xx9-------------------------	
-----------------------------xx5-xx4-xx5-xx7-------------------------
	Link To Verse 2
---------------------------------------------------------------------	
---------------------------------------------------------------------	
9999999999999999999999999999-----------------------------------------	
9999999999999999999999999999-----------------------------------------	
7777777777777777777777777777-----------------------------------------	
---------------------------------------------------------------------			

The second verse is the same as the first one but before you go into
it after the link there is a little pause an a slight pick
scratch.
After the second verse you play the bridge and the chorus again.

	Link fron Chorus 2 to Interlude

The link is the same as the first half of the intro.

Interlude

(7)-----(7)------(7)---(7)---(7)---(7)-------------------------------	
----(7)-------------(7)---(7)---(7)---(7)----------------------------	
---------------------------------------------------------------------	
---------------------------------------------------------------------	
---------------------------------------------------------------------	
---------------------------------------------------------------------	

Solo

---------------------------------------------------------------------	
---------------------------------------------------------------------	
44444444-66666666-4444-9999-88888888-66666666-9999-1111111-----------	
44444444-66666666-4444-9999-88888888-66666666-9999-1111111-----------	
66666666-44444444-2222-7777-66666666-44444444-7777-9-9-9-9-----------	
---------------------------------------------------------------------	

Then play the chorus

Link from last chorus to first part of the Intro


---------------------------------------------------------------------
---------------------------------------------------------------------
---------------------------------------------------------------------
---77777777777-------------------------------------------------------
---77777777777-------------------------------------------------------
---55555555555-------------------------------------------------------

Key

() Harmonics
***************************************************************************

Comments