Offspring - Want You Bad Chords & Tabs

 

Want You Bad Chords & Tabs

Offspring Chords & Tabs

Version: 3 Type: Tab 0 ratings
1 star 2 stars 3 stars 4 stars 5 stars
comments

Want You Bad Tab

   
                    "Want You Bad" by The Offspring


Intro:
    E5         B         A       C#5       B5                      E5
  
e|---7--------7-7-------5-5-------4--------2-|           |      |-7xxxxxxxxxxxxx         
b|---7--------7-7-------5-5-------4--------2-|  Played   |      |-7xxxxxxxxxxxxx
g|---9--------8-8-------6-6-------6--------4-|           | Then:|-9xxxxxxxxxxxxx
d|---9--------9-9-------7-7-------6--------4-|  4 Times  |      |-9xxxxxxxxxxxxx
a|---7--------9-9-------7-7-------4--------2-|           |      |-7xxxxxxxxxxxxx
E|---7--------7-7-------5-5-------4--------2-|           |      |-7xxxxxxxxxxxxx

Verse:
   E5      C#5      B       A   G#  A   B

e|---7xxxx---4xxxx---7xxxx---5-/-4-/-5-/-7---|
b|---7xxxx---4xxxx---7xxxx---5-/-4-/-5-/-7---|
g|---9xxxx---6xxxx---8xxxx---6-/-5-/-6-/-8---|
d|---9xxxx---6xxxx---9xxxx---7-/-6-/-7-/-9---|
a|---7xxxx---4xxxx---9xxxx---7-/-6-/-7-/-9---|
E|---7xxxx---4xxxx---7xxxx---5-/-4-/-5-/-7---|

PreChorus:
     A        B       C#5       E5  
[ Tab from: http://www.guitartabs.cc/tabs/o/offspring/want_you_bad_tab_ver_3.html ]
e|---5--------7--------4--------7---|     
b|---5--------7--------4--------7---|    Played
g|---6--------8--------6--------9---|
d|---7--------9--------6--------9---|    2 Times
a|---7--------9--------4--------7---|
E|---5--------7--------4--------7---|

Chorus: Same as the verse, except there is no palm muting

Bridge:
     B5  Asus2  E5   B5

e|---2-----0----7----2---|  Play    |--19---14---19---|
b|---2-----0----7----2---|  These   |-----------------|
g|---4-----2----9----4---|  Notes   |-----------------|
d|---4-----2----9----4---|  Quietly |-----------------|
a|---2-----0----7----2---|  Behind  |-----------------|
E|---2-----0----7----2---|  Chords  |-----------------|

Solo:

e|---11---9----7----11---9----7------------------------|
b|-----------------------------------------------------|
g|---8----6----4----8----6----4----9----11----13---16--|
d|-----------------------------------------------------|
a|---------------------------------7----9-----11---14--|
E|-----------------------------------------------------|

Intro
Verse
PreChorus
Chorus
Verse
PreChorus
Chorus
Intro
Bridge
Solo
Chorus
Chorus
Intro


This tab sounds pretty damn good, but it's the night before exams 
and I'm tired, so feel free to point out any mistakes.  
"Poor Andy" is the greatest band ever...  
Enjoy this tab.       --Sean Rippen--





Comments