Offspring - Want You Bad Chords & Tabs

 

Want You Bad Chords & Tabs

Offspring Chords & Tabs

Version: 13 Type: Tab 0 ratings
1 star 2 stars 3 stars 4 stars 5 stars
comments

Want You Bad Tab

Want You Bad - The Offspring

Tabbed by: Dean 'd_man2k' Pesani
Email: deanpesani@hotmail.com

Tuning: EADGBe (standard)

Intro
e|-------------------|      |--------------------------------|
B|-------------------|      |--------------------------------|
G|--9--44------6-4---|      |-999999999999999999999999999999-|
D|--9--44--77--6-4---| X4   |-999999999999999999999999999999-|
A|--7--22--77--4-2---|      |-777777777777777777777777777777-|
E|---------55--------|      |--------------------------------|
                          pm   |...........................|
                                  release palm mute slowly

Verse
e|---------------------------------------------|-----------|
B|---------------------------------------------|-----------|
G|-9999999999999--6666666666666--4444444444444-|-----------|
D|-9999999999999--6666666666666--4444444444444-|-2---2-4---|
A|-7777777777777--4444444444444--2222222222222-|-0-6-0-2---|
E|---------------------------------------------|---4-------|
pm  ............   ............   ............   


e|---------------------------------------------|-------------------|
B|---------------------------------------------|-------------------|
G|-9999999999999--6666666666666--4444444444444-|-------------------|
D|-9999999999999--6666666666666--4444444444444-|-222-----222-444---|
A|-7777777777777--4444444444444--2222222222222-|-000-666-000-222---|
E|---------------------------------------------|-----444-----------|
pm  ............   ............   ............   ..  ..  ..  ..


Pre-Chorus
e|-------------------------|---------------------xxxxxx--|
B|-------------------------|---------------------xxxxxx--|
G|-22222-44444-66666-99999-|-22222-44444-66666-9-xxxxxx--|
D|-22222-44444-66666-99999-|-22222-44444-66666-9-xxxxxx--|
A|-00000-22222-44444-77777-|-00000-22222-44444-7-xxxxxx--|
E|-------------------------|---------------------xxxxxx--|


Chorus
e|------------------------------|---------|
B|------------------------------|---------|
G|--99999999-66666666-444444444-|---------|
D|--99999999-66666666-444444444-|-2---2-4-|
A|--77777777-44444444-222222222-|-0-6-0-2-|
E|------------------------------|---4-----|

e|------------------------------|-----------------|
B|------------------------------|-----------------|
G|--99999999-66666666-444444444-|-----------------|
D|--99999999-66666666-444444444-|-222-----222-444-|
A|--77777777-44444444-222222222-|-000-666-000-222-|
E|------------------------------|-----444---------|
                               pm ..  ..  ..  ..
then
e|-------------------------------|------------|
B|-------------------------------|------------|
G|--999999999999999999999999999--|------------|
D|--999999999999999999999999999--|------------|
A|--777777777777777777777777777--|------------|
E|-------------------------------|---12\------|
pm   .........................
      slowly release palm mute


Verse
e|---------------------------------------------|-----------|
B|---------------------------------------------|-----------|
G|-9999999999999--6666666666666--4444444444444-|-----------|
D|-9999999999999--6666666666666--4444444444444-|-2---2-4---|
A|-7777777777777--4444444444444--2222222222222-|-0-6-0-2---|
E|---------------------------------------------|---4-------|
pm  ............   ............   ............   

e|---------------------------------------------|-------------------|
B|---------------------------------------------|-------------------|
G|-9999999999999--6666666666666--4444444444444-|-------------------|
D|-9999999999999--6666666666666--4444444444444-|-222-----222-444---|
A|-7777777777777--4444444444444--2222222222222-|-000-666-000-222---|
E|---------------------------------------------|-----444-----------|
pm  ............   ............   ............   ..  ..  ..  ..

[ Tab from: http://www.guitartabs.cc/tabs/o/offspring/want_you_bad_tab_ver_13.html ]
Pre-Chorus
e|-------------------------|---------------------xxxxxx--|
B|-------------------------|---------------------xxxxxx--|
G|-22222-44444-66666-99999-|-22222-44444-66666-9-xxxxxx--|
D|-22222-44444-66666-99999-|-22222-44444-66666-9-xxxxxx--|
A|-00000-22222-44444-77777-|-00000-22222-44444-7-xxxxxx--|
E|-------------------------|---------------------xxxxxx--|


Chorus
e|------------------------------|---------|
B|------------------------------|---------|
G|--99999999-66666666-444444444-|---------|
D|--99999999-66666666-444444444-|-2---2-4-|
A|--77777777-44444444-222222222-|-0-6-0-2-|
E|------------------------------|---4-----|

e|------------------------------|-----------------|
B|------------------------------|-----------------|
G|--99999999-66666666-444444444-|-----------------|
D|--99999999-66666666-444444444-|-222-----222-444-|
A|--77777777-44444444-222222222-|-000-666-000-222-|
E|------------------------------|-----444---------|
                               pm ..  ..  ..  ..

Intro
e|-------------------|      |------------7----7----|
B|-------------------|      |--------------7-------|
G|--9--44------6-4---|      |--4-------------------|
D|--9--44--77--6-4---| X4   |--4-------------------|
A|--7--22--77--4-2---|      |--2-------------------|
E|---------55--------|      |----------------------|
                               ^ let ring 

Bridge (clean)
e|--------------------------------------|      
B|--------------------------------------|      
G|--4-----2-----9-----4-----------------|     
D|--4-----2-----9-----4-----------------| X2    
A|--2-----0-----7-----2-----------------|      
E|--------------------------------------| 


Solo
e|----------------------------------------------------------------------------|      
B|----------------------------------------------------------------------------|      
G|----------------------------------------------------------------------------|     
D|----------------------------------------------------------------------------|    
A|----666666666666-444444444444-222222-777777-666666666666-444444444444-------|      
E|----------------------------------------------------------------------------|

e|----------------------------------------------------------------------------|      
B|----------------------------------------------------------------------------|      
G|----------------------------------------------------------------------------|     
D|----------------------------------------------------------------------------|    
A|----77777777-99999999-111111111111-141414141414-----------------------------|      
E|----------------------------------------------------------------------------|
                        ^11's not 1's     ^14's not 1's and 4's


Chorus
e|------------------------------|---------|
B|------------------------------|---------|
G|--99999999-66666666-444444444-|---------|
D|--99999999-66666666-444444444-|-2---2-4-|
A|--77777777-44444444-222222222-|-0-6-0-2-|
E|------------------------------|---4-----|

e|------------------------------|-----------------|
B|------------------------------|-----------------|
G|--99999999-66666666-444444444-|-----------------|
D|--99999999-66666666-444444444-|-222-----222-444-|
A|--77777777-44444444-222222222-|-000-666-000-222-|
E|------------------------------|-----444---------|
                               pm ..  ..  ..  ..

e|------------------------------|----------------------|
B|------------------------------|----------------------|
G|--99999999-66666666-444444444-|----------------------|
D|--99999999-66666666-444444444-|-22222222-99999999----|
A|--77777777-44444444-222222222-|-00000000-77777777----|
E|------------------------------|----------------------|


Outro
e|-------------------|     |---------|
B|-------------------|     |---------|
G|--9--44------6-4---|     |--9------|
D|--9--44--77--6-4---| X3  |--9------|
A|--7--22--77--4-2---|     |--7------|
E|---------55--------|     |---------|
                            

That's the full song. Have Fun!
Comments