Offspring - Want You Bad Chords & Tabs

 

Want You Bad Chords & Tabs

Offspring Chords & Tabs

Version: 12 Type: Tab 0 ratings
1 star 2 stars 3 stars 4 stars 5 stars
comments

Want You Bad Tab

Offspring - Want You Bad

.......well here it is

pm - palm mute 
/ \ - slide 
hr - harmonic 
: - let ring 
x - scratch 


intro / bridge 1 / outro 

|-----------------------| 
|-----------------------| 
|-9-9-9-----------6-6-4-| 
|-9-9-9-9-9-9-7-7-6-6-4-| 
|-7-7-7-9-9-9-7-7-4-4-2-| 
|-------7-7-7-5-5-------| 

post intro / post chorus 
pm________________| 
|---------------------------| 
|---------------------------| 
|-9-9-9-9-9-9-9-9-9-9-9-9-9-| 
|-9-9-9-9-9-9-9-9-9-9-9-9-9-| 
|-7-7-7-7-7-7-7-7-7-7-7-7-7-| 
|---------------------------| 

verse 
pm____________________| |_____________________| |_____________________| 
|------------------------------------------------------------------------------- 
|------------------------------------------------------------------------------- 
|-9-9-9-9-9-9-9-9-9-9-9-9-9\6-6-6-6-6-6-6-6-6-6-6-6-6\4-4-4-4-4-4-4-4-4-4-4-4-4- 
|-9-9-9-9-9-9-9-9-9-9-9-9-9\6-6-6-6-6-6-6-6-6-6-6-6-6\4-4-4-4-4-4-4-4-4-4-4-4-4- 
|-7-7-7-7-7-7-7-7-7-7-7-7-7\4-4-4-4-4-4-4-4-4-4-4-4-4\2-2-2-2-2-2-2-2-2-2-2-2-2- 
|------------------------------------------------------------------------------- 

---------| 
---------| 
---------| 
-7-6-7-9-| 
-7-6-7-9-| 
-5-4-5-7-| 

pre chorus 

|-------------------------------------------------------------------------------| 
|-------------------------------------------------------------------------------| 
|---------------------6-6-6-6-6-9-9-9-9-9---------------------6-6-6-6-6-4-x-x-x-| 
|-7-7-7-7-7-9-9-9-9-9-6-6-6-6-6-9-9-9-9-9-7-7-7-7-7-9-9-9-9-9-6-6-6-6-6-4-x-x-x-| 
|-7-7-7-7-7-9-9-9-9-9-4-4-4-4-4-7-7-7-7-7-7-7-7-7-7-9-9-9-9-9-4-4-4-4-4-2-x-x-x-| 
|-5-5-5-5-5-7-7-7-7-7---------------------5-5-5-5-5-7-7-7-7-7-------------------| 

chorus 
[ Tab from: http://www.guitartabs.cc/tabs/o/offspring/want_you_bad_tab_ver_12.html ]
|------------------------------------------------------------------------- 
|------------------------------------------------------------------------- 
|-9-9-9-9-9-9-9-9-9-9-9-9-6-6-6-6-6-6-6-6-6-6-6-6-4-4-4-4-4-4-4-4-4-4-4-4- 
|-9-9-9-9-9-9-9-9-9-9-9-9-6-6-6-6-6-6-6-6-6-6-6-6-4-4-4-4-4-4-4-4-4-4-4-4- 
|-7-7-7-7-7-7-7-7-7-7-7-7-4-4-4-4-4-4-4-4-4-4-4-4-2-2-2-2-2-2-2-2-2-2-2-2- 
|------------------------------------------------------------------------- 

-------------------------| 
-------------------------| 
-------------------------| 
-7-7-7-6-6-6-7-7-7-9-9-9-| 
-7-7-7-6-6-6-7-7-7-9-9-9-| 
-5-5-5-4-4-4-5-5-5-7-7-7-| 

bridge 2 
clean 
|------7hr---------7hr-----------------------------------------| 
|-----------7hr------------------------------------------------| 
|-4:-------------------4:--------9:---4:---4:--------9:---4:---| 
|-4:-------------------4:---7:---9:---4:---4:---7:---9:---4:---| 
|-2:-------------------2:---7:---7:---2:---2:---7:---7:---2:---| 
|---------------------------5:------------------5:-------------| 

riff 

|--------------------------------------------------------------------------------- 
|--------------------------------------------------------------------------------- 
|--------------------------------------------------------------------------------- 
|---------------------------------------------------2-2-2-2-2-1-1-1-1-1-1-1-1-1-1- 
|-6-6-6-6-6-6-6-6-6-6-4-4-4-4-4-4-4-4-4-4-2-2-2-2-2------------------------------- 
|--------------------------------------------------------------------------------- 

-------------------------------------------------------------| 
-------------------------------------------------------------| 
-------------------------------------------------------------| 
---------------------2-2-2-2-2-4-4-4-4-4-6-6-6-6-6-9-9-9-9-9-| 
-4-4-4-4-4-4-4-4-4-4-----------------------------------------| 
-------------------------------------------------------------|  
Comments