Offspring - Want You Bad Chords & Tabs

 

Want You Bad Chords & Tabs

Offspring Chords & Tabs

Version: 11 Type: Tab 0 ratings
1 star 2 stars 3 stars 4 stars 5 stars
comments

Want You Bad Tab

                         OFFSPRING
                        WANT YOU BAD
           TABBED BY JEROME (DUCKS AND FIGHTS) GOVENDER
PM-PALM MUTE
S-SLIDE
/-SLIDE DOWN
INTRO
e----------------------------------------------------
B----------------------------------------------------
G-9------------------6-6-----------------------------
D-9---9-9-----7-7----6-6--9--------------------------
A-7---9-9-----7-7----4-4--9--------------------------
E-----7-7-----5-5---------7--------------------------

NEXT PART- BEFORE THE FIRST VERSE

e----------------------------------------------------
B----------------------------------------------------
G-9--------------------------------------------------
D-9--------------------------------------------------
A-7--------------------------------------------------
E----------------------------------------------------
   PM[---------------------] SLOWLY REALEASE---------

VERSE

e----------------------------------------------------
B----------------------------------------------------
G-9--------------9/6-----------6/4-------------------
D-9--------------9/6-----------6/4--------7-6-7---9--
A-7--------------7/4-----------4/2--------7-6-7---9--
E-----------------------------------------5-4-5---7--
PM[------------]   [----------]  [-------]
e----------------------------------------------------
B----------------------------------------------------
G-9--------------9/6-----------6/4-------------------
D-9--------------9/6-----------6/4------7-7-7--6-6-6-
A-7--------------7/4-----------4/2------7-7-7--6-6-6-
E---------------------------------------5-5-5--4-4-4-
PM[------------]   [----------]  [----][---]  [---]

e----------------------------------------------------
B----------------------------------------------------
G----------------------------------------------------
D-7-7-7--9-9-9---------------------------------------
A-7-7-7--9-9-9---------------------------------------
E-5-5-5--7-7-7---------------------------------------
[----]  [---]
PRE CHORUS-NOT SURE BOUT STRUMMING PATTERN JUST HAVE TO
LISTEN TO IT YOURSELF

e----------------------------------------------------
B----------------------------------------------------
G-----------6----9-----------------6-----------------
D-7----9----6----9-------7----9----6----7-X-X-X-X----
A-7----9----4----7-------7----9----4----7-X-X-X-X----
E-5----7-----------------5----7---------5-X-X-X-X----
[ Tab from: http://www.guitartabs.cc/tabs/o/offspring/want_you_bad_tab_ver_11.html ]
CHORUS STRUMMING PATTERN YOU'LL HAVE TO LISTEN TO
BY YOURSELF
e----------------------------------------------------
B----------------------------------------------------
G-9----6----4------------------9----6----4-----------
D-9----6----4----7--6--7--9----9----6----4----7-7-7--
A-7----4----2----7--6--7--9----7----4----2----7-7-7--
E----------------5--4--5--7-------------------5-5-5--
                                            [----]
e----------------------------------------------------
B----------------------------------------------------
G----------------------------------------------------
D-6-6-6----7-7-7----9-9-9----------------------------
A-6-6-6----7-7-7----9-9-9----------------------------
E-4-4-4----5-5-5----7-7-7----------------------------
[----]   [----]    [---]

THE NEXT PART IS THE PART THAT IS AFTER THE INTRO
THEN ITS THE VERSE
PRE CHORUS
CHORUS
INTRO

AFTER CHORUS IS JUST BAR CHORDS ITS EASY
e-----------------------------------------------------
B---------------9-------------------------------------
G-8------6------9------8------------------------------
D-9------7------9------9------------------------------
A-9------7------7------9------------------------------
E-7------5-------------7------------------------------
REPEAT TWICE THEN ITS THE NEXT PART WHICH IS THE 
LITTLE SOLO THINGY ITS A BIT HARD BUT WITH PRACTICE
FIGURE OUT THE STRUMMING PATTERN
e-----------------------------------------------------
B-----------------------------------------------------
G-8---6---4---9--8------6----9-11---13----16----------
D-X---X---X---X--X------X----X--X---X-----X-----------
A-6---4---2---7--6------4----7--9---11----14----------
E-----------------------------------------------------
THEN ITS THE CHORUS PLAYED ONCE ALTHOUGH THERE IS AN
EXTRA BAR AT THE END IT GOES LIKE THIS
AGAIN JUST FIGURE OUT THE PATTERN OF STRUMMING
e-----------------------------------------------------
B-----------------------------------------------------
G-9-----6-------4------2-----9------------------------
D-9-----6-------4------2-----7------------------------
A-7-----4-------2------0------------------------------
E-----------------------------------------------------
THEN BACK TO THE INTRO PLAYED THREE TIMES AND 
THE SONG ENDS ON THIS NOTE
e-----------------------------------------------------
B-----------------------------------------------------
G-9---------------------------------------------------
D-9---------------------------------------------------
A-7---------------------------------------------------
E-----------------------------------------------------

SORRY IF THERE ARE ANY MISTAKES ITS THE FIRST TAB IVE PUT 
ON THE UGA. IF YOU HAVE ANY PROBLEMS CONTACT ME AT 
PRIME_INERTIA@HOTMAIL.COM
............CYA...............
Comments