Offspring - Want You Bad Chords & Tabs

 

Want You Bad Chords & Tabs

Offspring Chords & Tabs

Version: 10 Type: Tab 0 ratings
1 star 2 stars 3 stars 4 stars 5 stars
comments

Want You Bad Tab

   
E--------------------------
B--------------------------intro a
G--9------------5------9---
D--9--9-9--7----5---9--9---
A--7--9-9--7----3---9--7---
E-----7-7--5--------7------

E--------------------------intro b
B--------------------------palm mute and play until verse
G--------9--9--9-----------
D--------9--9--9-----------
A--------7--7--7-------------
E--------------------------
        PALM MUTE------------------>
E----------------------------------
B----------------------------------
G---9---9--------6-----------------
D---9---9--X12---6-X 12---9--------
A---7---7--------4--------9--X12---
E-------------------------7--------

fIRST eNDING-
E---------------------
B---------------------
G---------------8-----
D---7---6---7---8-----
A---7---6---7---6-----
E---5---4---5---------
SECOND ENDING-
E----------------------------------------------------------
B----------------------------------------------------------
G-----------------------------------------------8------8---
D--7-----------7----6----------6-----7------7---8-pm2--8---
A--7--pm x 2---7----6--pm x 2--6-----7-pmx2-7---6------6---
E--5-----------5----4----------4-----5------5--------------
[ Tab from: http://www.guitartabs.cc/tabs/o/offspring/want_you_bad_tab_ver_10.html ]
Verse b
E--------------------------------------
B--------------------------------------
G-------------------7 X 5---9----------
D---5------7--------7-------9--X 7-----
A---5-X-5--5-X-6----5-------7----------
E---3------5---------------------------
chorus! ( go for it)
E--------------------------------
B--------------------------------
G--9------------6----------------
D--9--x 11------6- x 11---9------
A--7------------4---------9-x11--
E-------------------------7------

Verse c   THESE ARE PLAYED AS BARE HARMONICS. PLAY LIGHTLY.

E-----8---------8~-----8~------8~---- 
B--------7---------------7~----------
G-----------------8---------------8~-
D------------------------------------
A------------------------------------
E------------------------------------

solo- listen to song and work out pickin....
E------------------------------------
B------------------------------------
G------------------------------------
D-------------------------------6---9
A--6--4---------7--6--4--7--9--------
E--------7---------------------------

Final Ending
E
b
G-------------12-12
D----7--7-----12-12
A----7--7--~--10-12
E----5--5-----10-10

Iansie signing out. Enjoy it/quite easy song -any comments?
cargin88@hotmail.com
Comments