Offspring - Want You Bad Chords & Tabs

 

Want You Bad Chords & Tabs

Offspring Chords & Tabs

Version: 3 Type: Bass Tab 0 ratings
1 star 2 stars 3 stars 4 stars 5 stars
comments

Want You Bad Bass Tab

   
Want You Bad-The Offspring

Intro
G|---------------------|-----|
D|---------------------|-----|
A|-7-------------------|-7-7-| x4
E|-----7-7---5-5---9-7-|-----|

Fill 1

G|---------------------|
D|---------------------|
A|-7777777777777777777-|
E|---------------------|

Verse
G|--------------------------------------------------------------------------|
D|--------------------------------------------------------------------------| x2
A|-77777777777777777777-----------------------------------------------------|
E|---------------------7/999999999999999/7777777777777777---555-444-555-777-|

Bridge
G|-----------------------------------------------------------|
D|-----------------------------------------------------------|
A|-------------------------7-7-7-7-------------------------7-|
E|-5-5-5-5-7-7-7-7-9-9-9-9---------5-5-5-5-7-7-7-7-9-9-9-9---|

Chorus
[ Tab from: http://www.guitartabs.cc/tabs/o/offspring/want_you_bad_btab_ver_3.html ]
G|------------------------------------------------------------------------|
D|------------------------------------------------------------------------|
A|-7-7-77-7-7-7-77-77-----------------------------------------------------| x2
E|--------------------9-9-99-9-9-9-99-9-7-7-77-7-7-7-77-7-5-5-4-4-5-5-7-7-|

Fill 2

G|---------------------|
D|---------------------|
A|-7777777777777777777-|
E|---------------------|

Verse x2

Bridge 2
G|-----------------------------------------------------------------|
D|---------------------------------7-7-7-7-7-7-7-7-----------------|
A|-7-7-7-7-7-7-7-7-5-5-5-5-5-5-5-5-----------------7-7-7-7-7-7-7-7-|
E|-----------------------------------------------------------------|

Chorus x2

Intro x4

Guitar, Drums and Vocals

G|-------------------------------------------------------|
D|-------------------------------------------------------|
A|-------------------------------------7-7-777-7-77-7777-|
E|-7-7-777-7-77-7777-5-5-555-5-55-5555-------------------|

G|--------------------------------------------------------------------------|
D|--------------------------------------------------------------------------|
A|-------------------------------------7-7-777-7-77-7777-7-7-777-7-77-77777-|
E|-7-7-777-7-77-7777-5-5-555-5-55-5555--------------------------------------|

Chorus x3

Outro

G|-------------------|---|
D|-------------------|---|
A|-7-----------------|-7-| x3
E|---7-7---5-5---9-7-|---|


Tab by Joggy B
Comments