Offspring - Want You Bad Chords & Tabs

 

Want You Bad Chords & Tabs

Offspring Chords & Tabs

Version: 1 Type: Bass Tab 0 ratings
1 star 2 stars 3 stars 4 stars 5 stars
comments

Want You Bad Bass Tab

   
**---------------------------------------------------------------------**
*Song: Want you bad *
*Artist: Offspring *
*Album: Conspiricy of one *
*First Tabbed by: Russ Richey (cbr600f4r@aol.com) *
*Tabbed by Brian Fitzpatrick	(brian157@hotmail.com)
*http://www.basstabarchive.com/ *
**---------------------------------------------------------------------**


I don't know what Russ was thinking when he wrote this tab, the Offspring 
don't use a 5 string.  I saw them play this live
and it was like this. These are all the parts you need, listen to the song 
and youll get it.
INTRO

G|---------------------|
D|---------------------|
A|-7-------------------|
E|-----7-7---5-5---9-7-|


Fill1

G|-----------------------------------|
D|-----------------------------------|
A|-777777777777777777777777777777777-|
E|-----------------------------------|
B|-----------------------------------|

Verse

G|-----------------------------------------------------------------------|
D|-----------------------------------------------------------------------|
A|-7777777777777777------------------------------------------------------|
E|-----------------7/9999999999999999\7777777777777777---555-444-555-777-|


Bridge

G|---------------------------------|
D|---------------------------------|
A|-------------------------7-7-7-7-|
E|-5-5-5-5-7-7-7-7-9-9-9-9---------|
[ Tab from: http://www.guitartabs.cc/tabs/o/offspring/want_you_bad_btab.html ]
G|-----------------------------------------------------|
D|-----------------------------------------------------|
A|-----------------------------------------------------|
E|-5-5-5-5-7-7-7-7-9-9-9-9-7---------------------------|


Chorus

G|-----------------------------------------------------------------------|
D|-----------------------------------------------------------------------|
A|-7-7-77-7-7-7-77-7-----------------------------------------------------|
E|-------------------9-9-99-9-9-9-99-9-7-7-77-7-7-7-77-7-5-5-4-4-5-5-7-7-|


Fill2
G|---------------------------------|
D|---------------------------------|
A|-7-7-7-7-7-7-7-7-7-7-7-7-7-7-7-7-|
E|---------------------------------|
Bridge 2

G|-----------------------------------------------------------------|
D|---------------------------------7-7-7-7-7-7-7-7-----------------|
A|-7-7-7-7-7-7-7-7-5-5-5-5-5-5-5-5-----------------7-7-7-7-7-7-7-7-|
E|-----------------------------------------------------------------|


Guitar Solo Part

G|---------------------------------------------------------|
D|---------------------------------------------------------|
A|---------------------------------------7-7-777-7-77-7777-|
E|--7-7-777-7-77-7777-5-5-555-5-55-5555--------------------|


G|---------------------------------------------------------------------------|
D|---------------------------------------------------------------------------|
A|----------------------------------------7-7-777-7-77-7777 7-7-777-7-77-7777|
E|-7-7-777-7-77-7777--5-5-555-5-55-5555--------------------------------------|

Thats it.

Comments