Offspring - Walla Walla Chords & Tabs

 

Walla Walla Chords & Tabs

Offspring Chords & Tabs

Version: 6 Type: Tab 0 ratings
1 star 2 stars 3 stars 4 stars 5 stars
comments

Walla Walla Tab

Song:Walla Walla
Album:Americana
Track number:8

I have added strumming rhythms as the strum patterns can get very complicated


Spoken

One and two and three and four and

Said four times


Intro

e|-------------------|-----------------|-----------------|-----------------|
B|-------------------|-----------------|-----------------|-----------------|
G|-------------------|-----------------|-----------------|-----------------|
D|---3-3---3-3-3-2-0-|-----------------|-----------------|-------------0-2-|
A|-------------------|-3-3---3-3-3-2-0-|-------------0-2-|-3-3---3-3-3-----|
E|-------------------|-----------------|-3-3---3-3-3-----|-----------------|

e|-------------------|-----------------|-----------------|-----------|
B|-------------------|-----------------|-----------------|-----------|
G|-------------------|-----------------|-----------------|-5--5--5---|
D|---3-3---3-5/3-2-0-|-----------------|-----------------|-5--5--5---|
A|-------------------|-3-3---3-3-3-2-0-|-------------0-2-|-3--3--3---|
E|-------------------|-----------------|-3-3---3-3-3-----|-----------|



Verse
All palm muted

e|----------------------------------|----------------------------------|
B|----------------------------------|----------------------------------|
G|----------------------------------|-5---5---5-5-5---5-5-5---5---5-5--|
D|--3---3---3-3-3---3-3-3---3---3-3-|-5---5---5-5-5---5-5-5---5---5-5--|
A|--3---3---3-3-3---3-3-3---3---3-3-|-3---3---3-3-3---3-3-3---3---3-3--|
E|--1---1---1-1-1---1-1-1---1---1-1-|----------------------------------|
    V   V   V ^ V   V ^ V   V   V ^   V   V   V ^ V   V ^ V   V   V ^   


e|----------------------------------|----------------------------------|
B|----------------------------------|----------------------------------|
G|----------------------------------|-5---5---5-5-5---5-5-5---5---5-5--|
D|--5---5---5-5-5---5-5-5---5---5-5-|-5---5---5-5-5---5-5-5---5---5-5--|
A|--5---5---5-5-5---5-5-5---5---5-5-|-3---3---3-3-3---3-3-3---3---3-3--|
E|--3---3---3-3-3---3-3-3---3---3-3-|----------------------------------|
    V   V   V ^ V   V ^ V   V   V ^   V   V   V ^ V   V ^ V   V   V ^   

e|----------------------------------|----------------------------------|
B|----------------------------------|----------------------------------|
G|----------------------------------|-5---5---5-5-5---5-5-5---5---5-5--|
D|--3---3---3-3-3---3-3-3---3---3-3-|-5---5---5-5-5---5-5-5---5---5-5--|
A|--3---3---3-3-3---3-3-3---3---3-3-|-3---3---3-3-3---3-3-3---3---3-3--|
E|--1---1---1-1-1---1-1-1---1---1-1-|----------------------------------|
    V   V   V ^ V   V ^ V   V   V ^   V   V   V ^ V   V ^ V   V   V ^   

e|----------------------------------|----------------------------------|
B|----------------------------------|----------------------------------|Last 4
G|----------------------------------|-5--------5--------5--------6-----|are not
D|--5---5---5-5-5---5-5-5---5---5-5-|-5--------5--------5--------6-----|muted
A|--5---5---5-5-5---5-5-5---5---5-5-|-3--------3--------3--------4-----|
E|--3---3---3-3-3---3-3-3---3---3-3-|----------------------------------|
    V   V   V ^ V   V ^ V   V   V ^   V        V        V        V     


Goodbye my friend, you've messed up again.
You're going to prison, you're of to the pen.
You've gotten of easy so many times.
I guess no-one told you how to get a life!
The judge wasn't lenient like he was before.
You got three to five and a kick out the door.
The public defender really did try.
Too little to late, you didn't get a life!


Chorus
[ Tab from: http://www.guitartabs.cc/tabs/o/offspring/walla_walla_tab_ver_6.html ]
e|------------------|------------------|-----------------|-----------------|
B|------------------|------------------|-----------------|-----------------|
G|--7-7---7-7-7---7-|-7-7-7-7-7/9-9/10-|-1010-101010--10-|-10--10--10--10--|
D|--7-7---7-7-7---7-|-7-7-7-7-7/9-9/10-|-1010-101010--10-|-10--10--10--10--|
A|--5-5---5-5-5---5-|-5-5-5-5-5/7-7/8--|-8-8---8-8-8---8-|--8---8---8---8--|
E|------------------|------------------|-----------------|-----------------|
    V ^   ^ V ^   ^   V ^ V ^ V ^ V ^    V ^   ^ V ^   ^    V   V   V   V   


e|------------------|-----------------|-----------------|----------------|
B|------------------|-----------------|-----------------|----------------|
G|--5-5---5-5-5---5-|-5-5-5-5-5-5-5-5-|-----------------|----------------|
D|--5-5---5-5-5---5-|-5-5-5-5-5-5-5-5-|-5-5---5-5-5---5-|-5---5---5---5--|
A|--3-3---3-3-3---3-|-3-3-3-3-3-3-3-3-|-5-5---5-5-5---5-|-5---5---5---5--|
E|------------------|-----------------|-3-3---3-3-3---3-|-3---3---3---3--|
    V ^   ^ V ^   ^   V ^ V ^ V ^ V ^   V ^   ^ V ^   ^   V   v   V   V


e|----------------|---------------|----------------|-----------------|
B|----------------|---------------|----------------|-----------------|
G|--7---7---7---7-|-7---7---7---9-|-10--10--10--10-|-10--10--10--10--|
D|--7---7---7---7-|-7---7---7---9-|-10--10--10--10-|-10--10--10--10--|
A|--5---5---5---5-|-5---5---5---7-|--8---8---8---8-|--8---8---8---8--|
E|----------------|---------------|----------------|-----------------|
    V   V   V   V   V   V   V   V    V   V   v   V    V   V   V   V  


e|------------------|-----------------|-----------------|----------------|
B|------------------|-----------------|-----------------|----------------|
G|--5-5---5-5-5---5-|-5-5-5-5-5-5-5-5-|-----------------|----------------|
D|--5-5---5-5-5---5-|-5-5-5-5-5-5-5-5-|-5-5---5-5-5---5-|-5---5---5---5--|
A|--3-3---3-3-3---3-|-3-3-3-3-3-3-3-3-|-5-5---5-5-5---5-|-5---5---5---5--|
E|------------------|-----------------|-3-3---3-3-3---3-|-3---3---3---3--|
    V ^   ^ V ^   ^   V ^ V ^ V ^ V ^   V ^   ^ V ^   ^   V   v   V   V


Hey in walla, I'll see you in-a walla walla.
Slap on the wrist, well not this time.
Hey in walla, I'll see you in-a walla walla.
Folsom prison is the destination.
Hey in walla, I'll see you in-a walla walla.
Slap on the wrist, well not this time.
In the scheme of life were all just brothers.
Rehabilitate with all the others. 
Well I'll see ya.



Verse

That car looked so tempting, so easy to drive.
Just like that apartment that you burglaized.
You started to run but didn't get far.
Cause under your arm was a V.C.R!


Chorus



Bridge
All palm muted
e|------------------|-----------------|---------------|---------------|
B|------------------|-----------------|---------------|---------------|
G|----------------0-|-5-5-5-5---5-5---|---------------|-5---5---5-5-0-|
D|--3-3-3-3---3-3-0-|-5-5-5-5---5-5-5-|-5---5---5-5-5-|-5---5---5-5-0-|
A|--3-3-3-3---3-3---|-3-3-3-3---3-3-5-|-5---5---5-5-5-|-3---3---3-3---|
E|--1-1-1-1---1-1---|---------------3-|-3---3---3-3-3-|---------------|
    V ^ V ^   ^ V ^   V ^ V ^   ^ V ^   V   V   V ^ V   V   V   V ^ V 

Spoken
I'm innocent, I didn't do it, I didn't do nothing man.
This is bullshit. He just gave it to me. It was a present.


e|--------1---1-1---|-------0---0-0---|-------1---1-1---|-------0---0-0---|
B|--------1---1-1-0-|-------1---1-1-0-|-------0---0-0-0-|-------1---1-1-0-|
G|--------2---2-2-0-|-------0---0-0-0-|-------0---0-0-0-|-------0---0-0-0-|
D|--------2---2-2-0-|-------2---2-2-0-|-------0---0-0-0-|-------2---2-2-0-|
A|--------3---3-3---|-3-----3---3-3---|-------2---2-2---|-3-----3---3-3---|
E|--1-----1---1-1---|-----------------|-3-----3---3-3---|-----------------|
    V ^ V ^ V ^ V ^   V ^ V ^ V ^ V ^   V ^ V ^ V ^ V ^   V ^ V ^ V ^ V ^

Spoken
Ho ho, not this time my friend.
You'll be in lockdoen by ten.
I'm afraid you can't talk your way out of this one, son.
The four walls are your twenty four hour a day constant companions.



Chorus, then chorus with intro riff and lots of 'Well I'll see ya's
End on 'Have a nice life'.
Comments