Offspring - Walla Walla Chords & Tabs

 

Walla Walla Chords & Tabs

Offspring Chords & Tabs

Version: 5 Type: Tab 0 ratings
1 star 2 stars 3 stars 4 stars 5 stars
comments

Walla Walla Tab

   
Intro
E|------------------------------|
B|------------------------------|
G|------------------------------|
D|-3-3-3-3-3-2-0----------------|
A|------------------------------|
E|------------------------------|

E|------------------------------------------------|
B|------------------------------------------------|
G|------------------------------------------------|
D|------------------------------------------0-2---|
A|-3-3-3-3-3-2-0-------------0-2-3-3-3-3-3--------|
E|-----------------3-3-3-3------------------------|

E|---------------------------------------------------------|
B|---------------------------------------------------------|
G|--------------------------------------------------5-5-5--|
D|-3-3-3/5-3-2-0------------------------------------5-5-5--|
A|------------------3-3-3-3-3-2-0---------------0-2-3-3-3--|
E|------------------------------------3-3-3-3-3------------|

Verse 4X
E|---------------------------------------------|
B|---------------------------------------------|
G|-------------5555555555--------------5-5-5-5-|
D|-3333333333--5555555555--5555555555--5-5-5-5-|
A|-3333333333--3333333333--5555555555--3-3-3-3-|
E|-1111111111--------------3333333333----------|
P.M............................................

E|----------------------------------------------|
B|----------------------------------------------|
G|-------------5555555555---------------5-5-5-5-|
D|-3333333333--5555555555--55555555555--5-5-5-5-|
A|-3333333333--3333333333--55555555555--3-3-3-3-|
E|-1111111111--------------33333333333----------|
  P.M..................................

Chorus
E|-------------------------------------------------|
B|-------------------------------------------------|
G|--5----777777777--/--9--/--1010101010101010101010|
D|--5----777777777--/--9--/--1010101010101010101010|
A|--3----555555555--/--7--/---8-8-8-8-8-8-8-8-8-8-8|
E|-------------------------------------------------|

E|------------------------------------------|
B|------------------------------------------|
G|-5555555555555------------5555555/8888888.|
D|-5555555555555-5555555555-5555555/8888888.|
A|-3333333333333-5555555555-3333333/6666666-|
E|---------------3333333333-----------------|

Intro
E|------------------------------|
B|------------------------------|
G|------------------------------|
D|-3-3-3-3-3-2-0----------------|
A|------------------------------|
E|------------------------------|
[ Tab from: http://www.guitartabs.cc/tabs/o/offspring/walla_walla_tab_ver_5.html ]
E|------------------------------------------------|
B|------------------------------------------------|
G|------------------------------------------------|
D|-------------------------------------------0-2--|
A|-3-3-3-3-3-2-0--------------0-2-3-3-3-3-3-------|
E|-----------------3-3-3-3------------------------|

E|---------------------------------------------------------|
B|---------------------------------------------------------|
G|--------------------------------------------------5-5-5--|
D|-3-3-3/5-3-2-0------------------------------------5-5-5--|
A|------------------3-3-3-3-3-2-0---------------0-2-3-3-3--|
E|------------------------------------3-3-3-3-3------------|

Pre Outro chorus mix-2X
Palm mute everything, 
when your playing, mute it and release the mute on EACH NOTE and 
strike it a couple times without muting it
Again, on 2'nd time around do not palm mute last note AT ALL(3,5,5)

Verse 4X
E|---------------------------------------------|
B|---------------------------------------------|
G|-------------5555555555--------------5-5-5-5-|
D|-3333333333--5555555555--5555555555--5-5-5-5-|
A|-3333333333--3333333333--5555555555--3-3-3-3-|
E|-1111111111--------------3333333333----------|

E|---------------------------------------------|
B|---------------------------------------------|
G|-------------5555555555--------------5-5-5-5-|
D|-3333333333--5555555555--5555555555--5-5-5-5-|
A|-3333333333--3333333333--5555555555--3-3-3-3-|
E|-1111111111--------------3333333333----------|
  P.M...........................................

E|---------------------------------------------|
B|---------------------------------------------|
G|-------------5555555555--------------5-5-5-5-|
D|-3333333333--5555555555--5555555555--5-5-5-5-|
A|-3333333333--3333333333--5555555555--3-3-3-3-|
E|-1111111111--------------3333333333----------|
  P.M..................................

Intro
E|------------------------------|
B|------------------------------|
G|------------------------------|
D|-3-3-3-3-3-2-0----------------|
A|------------------------------|
E|------------------------------|

E|------------------------------------------------|
B|------------------------------------------------|
G|------------------------------------------------|
D|-------------------------------------------0-2--|
A|-3-3-3-3-3-2-0--------------0-2-3-3-3-3-3-------|
E|-----------------3-3-3-3------------------------|

E|---------------------------------------------------------|
B|---------------------------------------------------------|
G|--------------------------------------------------5-5-5--|
D|-3-3-3/5-3-2-0------------------------------------5-5-5--|
A|------------------3-3-3-3-3-2-0---------------0-2-3-3-3--|
E|------------------------------------3-3-3-3-3------------|
Comments