Offspring - Walla Walla Chords & Tabs

 

Walla Walla Chords & Tabs

Offspring Chords & Tabs

Version: 3 Type: Tab 0 ratings
1 star 2 stars 3 stars 4 stars 5 stars
comments

Walla Walla Tab

   
#----------------------------------PLEASE NOTE---------------------------------#
#This file is the author's own work and represents their interpretation of the #
#song. You may only use this file for private study, scholarship, or research. #
#------------------------------------------------------------------------------#

Offspring
Walla Walla

Intro (guitar 1 w/dist.)

e|-------------------------------------------------------------------
B|-------------------------------------------------------------------
G|-------------------------------------------------------------------
D|-3--3---3--3--3--2--0----------------------------------------------
A|-----------------------3--3---3--3--3--2--0------------------0--2--
E|---------------------------------------------3--3---3--3--3--------

e|-------------------------------------------------------------------------|
B|-------------------------------------------------------------------------|
G|-----------------------------------------------------------------5--5--5-|
D|-3--3---3/5\3--2--0----------------------------------------------5--5--5-|
A|---------------------3--3---3--3--3--2--0------------------0--2--3--3--3-|
E|-------------------------------------------3--3---3--3--3----------------|

(guitar 2 w/dist.)

e|--------------------------------------------------------------------------
B|--------------------------------------------------------------------------
G|-10-10---10--10--10---10--10--10---5--5---5--5--5---5--5--5---------------
D|-10-10---10--10--10---10--10--10---5--5---5--5--5---5--5--5---5--5---5--5-
A|--8--8----8---8---8----8---8---8---3--3---3--3--3---3--3--3---5--5---5--5-
E|--------------------------------------------------------------3--3---3--3-

e|---------------------------------------------------------------------------
B|---------------------------------------------------------------------------
G|---------------5--5---5--5--5---5--5--5---10--10---10--10--10---10--10--10-
D|-5---5--5--5---5--5---5--5--5---5--5--5---10--10---10--10--10---10--10--10-
A|-5---5--5--5---3--3---3--3--3---3--3--3----8---8----8---8---8----8---8---8-
E|-3---3--3--3---------------------------------------------------------------

e|---------------------------------------------------------------|
B|---------------------------------------------------------------|
G|-5--5---5--5--5---5--5--5------------------------------5--5--5-|
D|-5--5---5--5--5---5--5--5---5--5---5--5--5---5--5--5---5--5--5-|
A|-3--3---3--3--3---3--3--3---5--5---5--5--5---5--5--5---3--3--3-|
E|----------------------------3--3---3--3--3---3--3--3-----------|

Verses (guitar 2 w/dist.)

e|----------------------------------------------------------------------------
B|----------------------------------------------------------------------------
G|---------------------------------------5---5---5--5--5---5--5--5---5---5--5-
D|-3---3---3--3--3---3--3--3---3---3--3--5---5---5--5--5---5--5--5---5---5--5-
A|-3---3---3--3--3---3--3--3---3---3--3--3---3---3--3--3---3--3--3---3---3--3-
E|-1---1---1--1--1---1--1--1---1---1--1---------------------------------------
p.m........................................................................... 
  'Goodbye    my    friend ...
 
e|----------------------------------------------------------------------------
B|----------------------------------------------------------------------------
G|---------------------------------------5---5---5--5--5---5--5--5---5---5--5-
D|-5---5---5--5--5---5--5--5---5---5--5--5---5---5--5--5---5--5--5---5---5--5-
A|-5---5---5--5--5---5--5--5---5---5--5--3---3---3--3--3---3--3--3---3---3--3-
E|-3---3---3--3--3---3--3--3---3---3--3---------------------------------------
p.m...........................................................................  
  going      to       prison ...

e|----------------------------------------------------------------------------
B|----------------------------------------------------------------------------
G|---------------------------------------5---5---5--5--5---5--5--5---5---5--5-
D|-3---3---3--3--3---3--3--3---3---3--3--5---5---5--5--5---5--5--5---5---5--5-
A|-3---3---3--3--3---3--3--3---3---3--3--3---3---3--3--3---3--3--3---3---3--3-
E|-1---1---1--1--1---1--1--1---1---1--1---------------------------------------
p.m........................................................................... 
   gotten        off .

e|-------------------------------------------------------------------------|
B|-------------------------------------------------------------------------|
G|-------------------------------------------5-------------5---------5-----|
D|-5---5---5--5--5---5--5--5---5---5--5------5-------------5---------5-----|
A|-5---5---5--5--5---5--5--5---5---5--5------3-------------3---------3-----|
E|-3---3---3--3--3---3--3--3---3---3--3------------------------------------|
p.m.....................................|  
  no    one     told   you ...

Chorus (guitars 1 & 2 w/dist.)

e|--------------------------------------------------------------------
B|--------------------------------------------------------------------
G|-7----7------7---7---7------7----7---7---7---7----7///9----9\\\10---
D|-7----7------7---7---7------7----7---7---7---7----7///9----9\\\10---
A|-5----5------5---5---5------5----5---5---5---5----5///7----7\\\ 8---
E|--------------------------------------------------------------------
      'Hey,    in  Walla ...

e|--------------------------------------------------------|
B|--------------------------------------------------------|
G|-10---10-----10---10---10-----10------10----10----10----|
D|-10---10-----10---10---10-----10------10----10----10----|
A|--8----8------8----8----8------8-------8-----8-----8----|
E|--------------------------------------------------------|
       Slap    on ...
[ Tab from: http://www.guitartabs.cc/tabs/o/offspring/walla_walla_tab_ver_3.html ]
e|---------------------------------------------------------------------
B|---------------------------------------------------------------------
G|-5----5------5---5---5------5----5---5---5---5----5---5---5---5---5--
D|-5----5------5---5---5------5----5---5---5---5----5---5---5---5---5--
A|-3----3------3---3---3------3----3---3---3---3----3---3---3---3---3--
E|---------------------------------------------------------------------
     'Hey,    in   Walla ...

e|-----------------------------------------------------|
B|-----------------------------------------------------|
G|-----------------------------------------------------|
D|-5---5------5---5---5------5------5------5------5----|
A|-5---5------5---5---5------5------5------5------5----|
E|-3---3------3---3---3------3------3------3------3----|
   Folsom   Prison ...

e|-------------------------------------------------------------------------
B|-------------------------------------------------------------------------
G|-7------7------7------7------7------7-----7///9----9\\\10----10----10----
D|-7------7------7------7------7------7-----7///9----9\\\10----10----10----
A|-5------5------5------5------5------5-----5///7----7\\\ 8-----8-----8----
E|-------------------------------------------------------------------------
  'Hey,   in     Wal - la ...

e|--------------------------------------|
B|--------------------------------------|
G|-10----10---10------10----10----10----|
D|-10----10---10------10----10----10----|
A|--8-----8----8-------8-----8-----8----|
E|--------------------------------------|
  the  wrist?  

e|---------------------------------------------------------------------
B|---------------------------------------------------------------------
G|-5----5------5---5---5------5----5---5---5---5----5---5---5---5---5--
D|-5----5------5---5---5------5----5---5---5---5----5---5---5---5---5--
A|-3----3------3---3---3------3----3---3---3---3----3---3---3---3---3--
E|---------------------------------------------------------------------
  'In  this    scheme ...

e|-----------------------------------------------------|
B|-----------------------------------------------------|
G|-----------------------------------------------------|
D|-5---5------5---5---5------5------5------5------5----|
A|-5---5------5---5---5------5------5------5------5----|
E|-3---3------3---3---3------3------3------3------3----|
   Rehabilitate   with ...

(then play everything through once)

Bridge (guitar 1 w/dist.)

e|-------------------------------------------------------------------
B|-------------------------------------------------------------------
G|-----------------------0----5--5--5--5-----5--5---0----------------
D|-3--3--3--3-----3--3---0----5--5--5--5-----5--5---0----5--5--5--5--
A|-3--3--3--3-----3--3---0----3--3--3--3-----3--3---0----5--5--5--5--
E|-1--1--1--1-----1--1-----------------------------------3--3--3--3--
p.m..................................................................
       'I'm     innocent ...

e|------------------------------------------|
B|------------------------------------------|
G|-----------0----5--5--5--5----5--5---0----|
D|----5--5---0----5--5--5--5----5--5---0----|
A|----5--5---0----3--3--3--3----3--3---0----|
E|----3--3----------------------------------|
  ..........................................|
                I  didn't  do 

|-------------------------------------------------------------------
B|-------------------------------------------------------------------
G|-----------------------0----5--5--5--5-----5--5---0----------------
D|-3--3--3--3-----3--3---0----5--5--5--5-----5--5---0----5--5--5--5--
A|-3--3--3--3-----3--3---0----3--3--3--3-----3--3---0----5--5--5--5--
E|-1--1--1--1-----1--1-----------------------------------3--3--3--3--
p.m..................................................................
     'This  is  bullshit ..

e|------------------------------------------|
B|------------------------------------------|
G|-----------0----5--5--5--5----9--9---7----|
D|----5--5---0----5--5--5--5----9--9---7----|
A|----5--5---0----3--3--3--3----7--7---5----|
E|----3--3----------------------------------|
  ..........................................|
  a present.

(guitar 2 w/clean tone)

e|-------1-------1----1---------------------0-------0----0--------
B|-------1-------1----1-----0---------------1-------1----1--------
G|-------2-------2----2-----0---------------0-------0----0-----0--
D|-------3-------3----3-----0---------------2-------2----2-----0--
A|-------3-------3----3-------------3-------3-------3----3-----0--
E|-------1-------1----1-------------------------------------------
p.m                                ...
  'Ho,  ho not  this  time ...

e|------------1-------1----1----1----------------0-------0----0---
B|------------0-------0----0----0----------------1-------1----1---
G|------------0-------0----0----0----------------0-------0----0---
D|------------0-------0----0----0----------------2-------2----2---
A|------------2-------2----2----2--------3-------3-------3----3---
E|----3-------3-------3----3----3---------------------------------
     ...                                ...
    You'll be in lockdown ...             

e|-------1-------1----1---------------------0-------0----0--------
B|-------1-------1----1-----0---------------1-------1----1--------
G|-------2-------2----2-----0---------------0-------0----0-----0--
D|-------3-------3----3-----0---------------2-------2----2-----0--
A|-------3-------3----3-------------3-------3-------3----3-----0--
E|-------1-------1----1-------------------------------------------
                                   ...
 afraid you can't talk ...

e|------------1-------1----1---------|
B|------------0-------0----0---------|
G|------------0-------0----0----0----|
D|------------0-------0----0----0----|
A|------------2-------2----2----0----|
E|----3-------3-------3----3---------|
     ...                             
    four   walls ......

(guitar 1 & 2 w/dist.)

e|--------------------------------------------------------------------|
B|--------------------------------------------------------------------|
G|-5----------5-------5----------5-----5------5----------5-----6------|
D|-5----------5-------5----------5-----5------5----------5-----6------|
A|-5----------5-------5----------5-----5------5----------5-----6------|
E|-3----------3-------3----------3-----3------3----------3-----4------|


Any requests from Smash, Americana or Conspiracy Of One e-mail me:
martynmc7@aol.com
Comments