Offspring - Vultures Chords & Tabs

 

Vultures Chords & Tabs

Offspring Chords & Tabs

Version: 9 Type: Tab 0 ratings
1 star 2 stars 3 stars 4 stars 5 stars
comments

Vultures Tab

This is one of my first tabs but I'm pretty sure it's all right. It is played on normal tuning. Enjoy!


Intro:
E|-----------------------------------------|------------|
B|-----------------------------------------|------------|
G|-----------------------------------------|------------|
D|-----------------------------------------|------------|
A|-----7--------7--------7-----------------|-----x4-----|
E|--5-----5--8-----8--7-----7--0--5--7--0--|------------|

Verse 1:
E|-----------------------------------------|------------|
B|-----------------------------------------|------------|
G|-----------------------------------------|------------|
D|-----------------------------------------|------------|
A|-----7--------7--------7-----------------|-----x8-----|
E|--5-----5--8-----8--7-----7--0--5--7--0--|------------|

Pre-Chorus:
E|--------------------------------|-------------|
B|--------------------------------|-------------|
G|--77--x--10-10------------------|-------------|
D|--77--x--10-10----77--x--10-10--|-------------|
A|--55--x--8--8-----77--x--10-10--|------x3-----|
E|------------------55--x--8--8---|-------------|

E|-----------------------------------------|------------|
B|-----------------------------------------|------------|
G|--7777777--9999999-----------------------|------------|
D|--7777777--9999999-----------------------|------------|
A|--5555555--7777777-----------------------|-----x1-----|
E|-----------------------------------------|------------|
p.m....................................................
[ Tab from: http://www.guitartabs.cc/tabs/o/offspring/vultures_tab_ver_9.html ]
Chorus:
E|-----------------------------------------|------------|
B|-----------------------------------------|------------|
G|-----------------------------------------|------------|
D|--7777--10101010--22--2-2----------------|------------|
A|--7777--10101010--22--2-2----------------|-----x3-----|
E|--5555--8-8-8-8---00--0-0----------------|------------|

E|----------------|------------|
B|----------------|------------|
G|--7-----9-------|------------|
D|--7x8--9x8----|------------|
A|--5-----7-------|-----x1-----|
E|----------------|------------|

Solo:
E|-----------------------------------------------------|
B|-----------------------------------------------------|
G|-------------------------------------7---------------|
D|--7--10---9--10--9--5--------7--10------109/10\9----|
A|-----------------------7-----------------------------|
E|-----------------------------------------------------|

E|-------------------------------------------------------|
B|-------------------------------------------------------|
G|-------------------------------------7--------9--7-----|
D|--7--10---9--10--9--5--------7--10------10-9--------10-|
A|-----------------------7-------------------------------|
E|-------------------------------------------------------|

Outro:
E|---------|
B|---------|
G|---------|
D|---7----|
A|---7----|
E|---5----|

Order:
Intro x1
Verse 1 x1
Pre-Chorus x1
Chorus x1
Veste 2 x1
Pre-Chorus x1
Chorus x2
Solo x1
Pre-Chorus x1
Chorus x2
Outro x1

Any corrections, you can e-mail me at jose_s_13@hotmail.com
Comments