Offspring - Vultures Chords & Tabs

 

Vultures Chords & Tabs

Offspring Chords & Tabs

Version: 7 Type: Tab 0 ratings
1 star 2 stars 3 stars 4 stars 5 stars
comments

Vultures Tab

   
tuning low to high
1/e   4/g
2/a   5/b
3/d   6/e
standard tuning
intro
------------------------------------------------------------
------------------------------------------------------------
------------------------------------------------------------
---2-----2---2-2--------------------------------------------
-0---0-3---3--2------2--------------------------------------
-----------------0-3---3------------------------------------
repeat this 12 times
pre-chorus
------------------------------------------------------------
------------------------------------------------------------
-7-7/10-10-10-0----------------0----------------------------
-7-7/10-10-10-0-7-7-7-10-10-10-0----------------------------
-5-5/-8--8--8-0-7-7-7-10-10-10-0----------------------------
----------------5-5-5--8--8--8------------------------------
repeat this 3 times
fill 
b-12-13-12-13-12-13-12-13-12-13-12-13-12-13-12-13-----------
gradually get louder
chorus
------------------------------------------------------------
------------------------------------------------------------
-2-2-2-5-5-5-----------0------------------------------------
-2-2-2-5-5-5-2-2-2-2-2-0------------------------------------
-0-0-0-3-3-3-2-2-2-2-2-#------------------------------------
-------------0-0-0-0-0-3------------------------------------
repeat this 3 times

------------------------------------------------------------
------------------------------------------------------------
-7-7-7-7-7-7-7-9-9-9-9-9-9-9-9-/----------------------------
-7-7-7-7-7-7-7-9-9-9-9-9-9-9-9-/----------------------------
-5-5-5-5-5-5-5-7-7-7-7-7-7-7-7-/----------------------------
------------------------------------------------------------
intro 6 times

strum these chords a5 c5 e5 g5 a5 c5 e5 g5 d5 e5 listen to the song u will get te pattern
pre-chorus 
chourus
intro 6 times
solo

g--2-2/5-5-5-4-5-(4)-----2-2/5-5-5-5/7-5-4-(5-4)-/0---------
d--------------------5-2------------------------------------

g-2-2/5-5-5-4-5-(4)----2-2/5-5-5-5/7-5-4-4/9-7-5/4----------
d------------------5-2--------------------------------------

intro 4 times 

g-2---------------------------------------------------------
d-2---------------------------------------------------------
a-0---------------------------------------------------------
[ Tab from: http://www.guitartabs.cc/tabs/o/offspring/vultures_tab_ver_7.html ]
Comments