Offspring - Vultures Chords & Tabs

 

Vultures Chords & Tabs

Offspring Chords & Tabs

Version: 6 Type: Tab 0 ratings
1 star 2 stars 3 stars 4 stars 5 stars
comments

Vultures Tab

   
Offspring, Vultures.
 Tabbed by Sebastian Lapidus, sebaslap@yahoo.com.
  
This is the first right and complete version of this song, believe in this one, others are incorrect.

Intro and Verse:

e|----------------------------|
B|----------------------------|
G|----------------------------|
D|---2-----2------------------|
A|-0---0-3---3-2-3-2------2---|
E|-------------------0--3---3-|

Pre chorus:(clean)

e|---------------------------------------|
B|---------------------------------------|
G|-7-7-10-10-10--------------------------|
D|-7-7-10-10-10-7-7-10-10-10-10-10-10-10-| X 2 then:
A|-5-5--8--8--8-7-7-10-10-10-10-10-10-10-|
E|--------------5-5--8--8--8--8--8--8--8-|

 (with distortion)
[ Tab from: http://www.guitartabs.cc/tabs/o/offspring/vultures_tab_ver_6.html ]
e|-----------------------------|
B|-----------------------------|
G|-----------------------------|
D|-2-2-2-2-2-2-2-2-2-2-2-2-2-2-|
A|-2-2-2-2-2-2-2-2-2-2-2-2-2-2-|
E|-0-0-0-0-0-0-0-0-0-0-0-0-0-0-|

Chorus: (Played twice on the 2nd and 3th chorus)

e|--------------------------------------|
B|--------------------------------------|
G|--------------------------------------|
D|-7-7-7-7-10-10-10-10-10-10--2-2-2-2-2-|
A|-7-7-7-7-10-10-10-10-10-10--2-2-2-2-2-|
E|-5-5-5-5--8--8--8--8--8--8--0-0-0-0-0-|

Solo:

I'm not sure about it, but I like to improvise in this scale: (A minor penthatonic)

e|---------------------5-8-|
B|-----------------5-8-----|
G|-------------5-7---------|
D|---------5-7-------------|
A|-----5-7-----------------|
E|-5-8---------------------|

Outro:

e|-----|
B|-----|
G|-----|
D|-7:--|
A|-7:--|
E|-5:--| 
:: Ultimate Guitar Archive :: 
http://www.ultimate-guitar.com 



Comments