Offspring - Vultures Chords & Tabs

 

Vultures Chords & Tabs

Offspring Chords & Tabs

Version: 4 Type: Tab 0 ratings
1 star 2 stars 3 stars 4 stars 5 stars
comments

Vultures Tab

#----------------------------------PLEASE NOTE---------------------------------#
#This file is the author's own work and represents their interpretation of the #
#song. You may only use this file for private study, scholarship, or research. #
#------------------------------------------------------------------------------#

Title: Vultures
Artist: The Offspring
Album: Conspiracy Of One
Transcribed By: Alan Good
Email: kentucky_fried_children_@hotmail.com
Tuning: Standard

INTRO:

e-------------------------------------
b-------------------------------------
g-------------------------------------
d----2------2------2------------------
a--0---0--3---3--2---2---0--3--0------
e----------------------0--------------

BRIDGE: 

e-----------------------------------------------------------------------------------------------
b-----------------------------------------------------------------------------------------------
g-7-7--10-10--9-9--5-5-5-5--7-7--10-10--9-9--5-5-5-5--7-7--10-10--9-9--5-5-5-5--9-9-9-9-9-9-9-9-
d-7-7--10-10--9-9--5-5-5-5--7-7--10-10--9-9--5-5-5-5--7-7--10-10--9-9--5-5-5-5--9-9-9-9-9-9-9-9-
a-5-5---8--8--7-7--3-3-3-3--5-5---8--8--7-7--3-3-3-3--5-5---8--8--7-7--3-3-3-3--7-7-7-7-7-7-7-7-
e-----------------------------------------------------------------------------------------------

 
CHORUS:
[ Tab from: http://www.guitartabs.cc/tabs/o/offspring/vultures_tab_ver_4.html ]
e------------------------------------------------------------------------
b------------------------------------------------------------------------
g------------------------------------------------------------------------
d--7-7-X-7--10-10-X-10--2-2-X-2-2-X----7-7-X-7--10-10-X-10--2-2-X-2-2-X--
a--7-7-X-7--10-10-X-10--2-2-X-2-2-X----7-7-X-7--10-10-X-10--2-2-X-2-2-X--
e--5-5-X-5---8--8-X--8--0-0-X-0-0-X----5-5-X-5---8--8-X--8--0-0-X-0-0-X--


e------------------------------------------------------------------------
b------------------------------------------------------------------------
g------------------------------------7-7-7-7--9-9-9-9--------------------
d--7-7-X-7--10-10-X-10--2-2-X-2-2-X--7-7-7-7--9-9-9-9--------------------
a--7-7-X-7--10-10-X-10--2-2-X-2-2-X--5-5-5-5--7-7-7-7--------------------
e--5-5-X-5---8--8-X--8--0-0-X-0-0-X--------------------------------------


SOLO:

e---------------------------------------------------------------------------------------------
b---------------------------------------------------------------------------------------------
g---------------------------------------------------------------------------------------------
d--7---7-7---7/10---10--10--9-10-9--------------7---7-7--7/10--10--10--10/12/10--9-10-9-------
a----------------------------------10--7--7--7------------------------------------------------
e---------------------------------------------------------------------------------------------

e---------------------------------------------------------------------------------------------
b---------------------------------------------------------------------------------------------
g---------------------------------------------------------------------------------9-----------
d--7---7-7---7/10---10--10--9-10-9--------------7---7-7--7/10--10--10--12--10--9----12--10--9-
a----------------------------------10--7--7--7------------------------------------------------
e---------------------------------------------------------------------------------------------




SONG ORDER:

INTRO (X12)
BRIDGE (X1)
CHORUS (x1)
INTRO (X6)
BRIDGE (X1)
CHORUS (X2)
SOLO (X1)
BRIDGE (X1)
CHORUS (X2)

end the song on an A chord (006775)
Comments