Offspring - Total Immortal Chords & Tabs

 

Total Immortal Chords & Tabs

Offspring Chords & Tabs

Version: 1 Type: Bass Tab 0 ratings
1 star 2 stars 3 stars 4 stars 5 stars
comments

Total Immortal Bass Tab

----------------------------------------------------------------------------
			     Total immortal - The Offspring
----------------------------------------------------------------------------

Tabbed By :Klayy 
e-mail: pacmaga@hotmail.com

Here goes, look on the notes not the number of them, If there are repeated notes I
sometimes don't bother writing it like 16 times, cuz nobody counts them anyway-just
listen to it.
I hope it's 100% correct, but there may be some mistakes, so sorry in advance.
Enjoy. 

Tuning: Standrd
Bit A {Intro in this case}
G|-----------------------------------------------------------------|
D|-----------------------------------------------------------------|
A|-----7-7\-----5-5------7-7\------5-5-5-----7-7\-------5-5--------|
E|-0-0------3-3------0-0------3-3--------0-0-------3-3------3-5-0--|
                                ^a little rhythm variation

Verse
G|-------------------------------------------------------------------------|
D|-7-7-7\-x-5-------------7-7-7\----5-5-5--7-7-7\--5-----------------------|
A|------------3-3-3-3------------x-3-------------------3-3-3-3-------------|
E|-------------------------------------------------------------5-6-3---x-3-|

G|--------------------------------------------------------------------------|
D|-7-7-7\-x-5----------7-7-7\----5-5-5--7-7-7\--5---------------------------|
A|------------3-3-3-3--------x-3-------------------3-3-3-3-----------8------|
E|----------------------------------------------------------7-7-7-7-7-------|

G|--------------------------------------------------------------------------|
D|--------------------------------------------------------------------------|
A|-7-7-7-7 ... and so on----------------------------------------------------|
E|--------------------------------------------------------------------------|


ChorusA
[ Tab from: http://www.guitartabs.cc/tabs/o/offspring/total_immortal_btab.html ]
G|--------------------------------------------------------------------------|
D|--------------------------------------------------------------------------|
A|-/7-7-7-x-x-7-7-5-7-7-5-----------1-2-3-5-5-5-5-5-4-5-6-7-5-7---56--------|
E|------------------------\3-3-3-3-3----------------------------3-----------|


ChorusB

G|-----------------------------------------------------------|
D|-----------------------------------------------------------|
A|-/7-7-7-x-x-7-7-5-7-7-5------------1-2-3-5-5-5-5-5-4-5-6---|
E|------------------------\3-3-3-3-3-------------------------|

G|--------------------------------------------------------------------------|
D|--------------------------------------------------------------------------|
A|--x-7-x-9-x-10-1212...----------------------------------------------------|
E|--------------------------------------------------------------------------|

and then bitA, verse, chorusA and B {basically all over again}



Bridge {listen to it a few times for rhythm)
G|--------------------------------------------------------------------------|
D|--------------------------------------------------------------------------|
A|-5h7-7-7-5h7-7-7-5h7-7-7-5h7-7-7-5h7-7-7-5h7-7-7---------5-5-5-3-5--------|
E|-------------------------------------------------3-3-3-3------------------|


G|--------------------------------------------------------------------------|
D|------------------/7-7-7--------------------------------------------------|
A|-5h7-7-7-5h7-7-7----------------8-8---------------------------------------|
E|-------------------------/8-8-8-------------------------------------------|




G|--------------------------------------------------------------------------|
D|------------------------------------------------------/7-7-7-------8-8--7-|
A|----5h7-7-7-5h7-7-7---------5-5-5-3-5-5h7-7-7-5h7-7-7--------/8-8-8-------|
E|--------------------3-3-3-3-----------------------------------------------|

then chorus A, B, B and from the 12 at the end slide down to 7 without strumming.
Simple, but fun to play.

x=muted
h=hammer on
\=slide down
/=slide up
Comments