Offspring - The Noose Chords & Tabs

 

The Noose Chords & Tabs

Offspring Chords & Tabs

Version: 8 Type: Tab 0 ratings
1 star 2 stars 3 stars 4 stars 5 stars
comments

The Noose Tab

   
-------------------------------------------------------------------------------
			     The Noose - Offspring
-------------------------------------------------------------------------------
Chords:
   Em G  D  D/F#  Ebar Gbar D5  G5
e|-0--3--2---0-----7----3----------|
B|-0--0--3---3-----8----3----------|
G|-X--0--2---2-----9----4---7---12-|
D|-2--0--0---0-----9----5---7---12-|
A|-2--2------0-----7----5---5---10-|
E|-0--3------2----------3----------|


Intro
e|----------------------------------------------------------------|
B|----------------------------------------------------------------|
G|----------------------------------------------------------------|
D|-----9-----9-----5-----5-------0---4---5---4---2---4---5---4----|
A|-7-7---7-7---0-------------------0---0---0---0---2---2---2---2--|
E|---------------3---3-3---3-3-3----------------------------------|

e|-0-------------------0--|
B|-0-------------------0--|
G|-X--------------8----X--|
D|-2---------7---------2--|
A|-2----5--------------2--|
E|-0-------------------0--|

Verse
Em                        G                            D                               Em
Visions of glory now have spiraled down the drain. The best of our intentions now come 
down in flames

                                    G                D/F#                  G
The depths of our despair, we are unable to contain. Wooaaah. It's shallow living.


Chorus
    Ebar                 Gbar                         D5                   Ebar
The noose is falling and all my friends are crawling. The noose is falling and enemies 
rising.

  Ebar                 Gbar                   D5                   Ebar
A truth appalling, our maker comes a calling. The noose is falling and enemies are rising.


Verse2
    D/F#                 G              D
...Whoah, Now I lay you down, put the coins in your eyes and blow the candles out, Whoah.


Chorus
    Ebar                 Gbar                         D5                   Ebar
The noose is falling and all my friends are crawling. The noose is falling and enemies 
rising.

  Ebar                 Gbar                   D5                   Ebar
A truth appalling, our maker comes a calling. The noose is falling and enemies are rising.


Interlude
[ Tab from: http://www.guitartabs.cc/tabs/o/offspring/the_noose_tab_ver_8.html ]
e|-7-7-7-7-7---------------------------------------7-7-7-7----7-7-7---|
B|-8-8-8-8-8---------------------------------------8-8-8-8----8-8-8---|
G|-9-9-9-9-9---12-12-12-12---12-12-12--7-7-7-7-7---9-9-9-9----9-9-9---|
D|-9-9-9-9-9---10-10-10-10---10-10-10--7-7-7-7-7---9-9-9-9----9-9-9---|
A|-7-7-7-7-7---10-10-10-10---10-10-10--5-5-5-5-5---7-7-7-7----7-7-7---|
E|--------------------------------------------------------------------|

e|----------------------------------------------------------------|
B|--------12----------------15b16-15b16-15b16---17b19-17b19-17b19-|
G|--------14--14b15r14--12--17b18-17b18-17b18---17b19-17b19-17b19-|
D|-12/14----------------------------------------------------------|
A|----------------------------------------------------------------|
E|----------------------------------------------------------------|

Chorus
    Ebar                 Gbar                         D5                   Ebar
The noose is falling and all my friends are crawling. The noose is falling and enemies 
rising.

  Ebar                 Gbar                   D5                   Ebar
A truth appalling, our maker comes a calling. The noose is falling and enemies are rising.


Interlude

e|-0-------------------0--|
B|-0-------------------0--|
G|-X--------------8----X--|
D|-2---------7---------2--|
A|-2----5--------------2--|
E|-0-------------------0--|


Bridge-2nd and 3rd time, the Intro riff is played over the top with a second guitar. 
the second set at the end of the fourth time
e|-----------------------------------------------------------|-------------------------------|
B|-----------------------------------------------------------|-------------------------------|
G|-7/9-------9-9-----------------5/7-------7-7-7/9-------9-9-|-7-------------9-9-9-9-9-9-9-9-|
D|-7/9-------9-9--4/5-------5-5--5/7-------7-7-7/9-------9-9-|-7-------------9-9-9-9-9-9-9-9-|
A|-5/7--7-7--7-7--4/5-------5-5--3/5--5-5--5-5-5/7--7-7--7-7-|-5-5-5-5-5-5-5-7-7-7-7-7-7-7-7-|
E|----------------2/3--3-3--3-3------------------------------|-------------------------------|
   No More        No More        Nothing!
   No More        No More        Ever!
   No             More
   No 	          More


Chorus

    Ebar                 Gbar                         D5                   Ebar
The noose is falling and all my friends are crawling. The noose is falling and enemies 
rising.

  Ebar                 Gbar                   D5                   Ebar
A truth appalling, our maker comes a calling. The noose is falling and enemies are rising.

    Ebar                 Gbar                         D5                   Ebar
The noose is falling and all my friends are crawling. The noose is falling and enemies 
rising.


Outro

e|-0-------------------0--|
B|-0-------------------0--|
G|-X--------------8----X--|
D|-2---------7---------2--|
A|-2----5--------------2--|
E|-0-------------------0--|
Comments