Offspring - The Noose Chords & Tabs

 

The Noose Chords & Tabs

Offspring Chords & Tabs

Version: 7 Type: Tab 0 ratings
1 star 2 stars 3 stars 4 stars 5 stars
comments

The Noose Tab

   
Author/Artist: The Offspring
Title: The Noose
Album: Splinter
Tabbed By: Paulska
E-mail Address: Squallmaster24@aol.com    or    Metalcadude@hotmail.com

Tuning: E A D G B E


Intro:
|--------------------|--------------------|--------------------|--------------------|
|--------------------|--------------------|--------------------|--------------------|
|--------------------|--------------------|--------------------|--------------------|
|-------9-----9------|-----5-----5--------|-------4---5---4----|-------4---5---4----| X4
|-----7---7-----7----|-------5-----5------|---5-5---5---5---5--|---7-7---7---7---7--|
|---0-------0--------|---3-----3-----3----|--------------------|--------------------|



|--------------------|--------------------|--------------------|--------------------|
|--------------------|--------------------|--------------------|---8~---------------|
|--------------------|--------------------|---7~---------------|--------------------|
|---2~---------------|---5~---------------|--------------------|--------------------|
|---2~---------------|--------------------|--------------------|--------------------|
|---0~---------------|--------------------|--------------------|--------------------|



|--------------------|
|--------------------|
|--------------------|
|---2~---------------|
|---2~---------------|
|---0~---------------|



|--------------------|--------------------|--------------------|--------------------|
|--------------------|--------------------|--------------------|--------------------|
|--------------------|--------------------|---7~---------------|--------------------|
|---2~---------------|---5~---------------|---7~---------------|---2~---------------|
|---2~---------------|---5~---------------|---5~---------------|---2~---------------|
|---0~---------------|---3~---------------|--------------------|---0~---------------|



|--------------------|--------------------|--------------------|--------------------|
|--------------------|--------------------|--------------------|--------------------|
|--------------------|--------------------|---7~---------------|--------------------|
|---2~---------------|---5~---------------|---7~---------------|---------------5~---|
|---2~---------------|---5~---------------|---5~---------------|---------------5~---|
|---0~---------------|---3~---------------|--------------------|---------------3~---|


Chorus:
|--------------------|--------------------|--------------------|--------------------|
|--------------------|--------------------|--------------------|--------------------|
|---9-9-9-9-9-9-9----|--------------------|---7-7-7-7-7-7-7----|---9-9-9-9-9-9-9----|
|---9-9-9-9-9-9-9----|---5-5-5-5-5-5-5----|---7-7-7-7-7-7-7----|---9-9-9-9-9-9-9----| X2
|---7-7-7-7-7-7-7----|---5-5-5-5-5-5-5----|---5-5-5-5-5-5-5----|---7-7-7-7-7-7-7----|
|--------------------|---3-3-3-3-3-3-3----|--------------------|--------------------|



|--------------------|--------------------|--------------------|--------------------|
|--------------------|--------------------|--------------------|--------------------|
|--------------------|--------------------|--------------------|---7~-----------7~--|
|---2----------------|---2----------------|---2----------------|---7~-------5~--7~--|
|---2----------------|---2----------------|---2----------------|---5~-------5~--5~--|
|---0----------------|---0----------------|---0----------------|------------3~------|


Chorus:
|--------------------|--------------------|--------------------|--------------------|
|--------------------|--------------------|--------------------|--------------------|
|---9-9-9-9-9-9-9----|--------------------|---7-7-7-7-7-7-7----|---9-9-9-9-9-9-9----|
|---9-9-9-9-9-9-9----|---5-5-5-5-5-5-5----|---7-7-7-7-7-7-7----|---9-9-9-9-9-9-9----| X2
|---7-7-7-7-7-7-7----|---5-5-5-5-5-5-5----|---5-5-5-5-5-5-5----|---7-7-7-7-7-7-7----|
|--------------------|---3-3-3-3-3-3-3----|--------------------|--------------------|



|--------------------|--------------------|--------------------|--------------------|
|--------------------|--------------------|--------------------|--------------------|
|--------------------|--------------------|--------------------|--------------------|
|-------9-----9------|-----5-----5--------|-------4---5---4----|-------4---5---4----|
|-----7---7-----7----|-------5-----5------|---5-5---5---5---5--|---7-7---7---7---7--|
|---0-------0--------|---3-----3-----3----|--------------------|--------------------|

[ Tab from: http://www.guitartabs.cc/tabs/o/offspring/the_noose_tab_ver_7.html ]
Solo:
|--------------------|------10------10----|---10------12-------|---12------12-------|
|-----10b12-10b12b10-|-8-10-13b15---13b15-|---13b15---15b17----|---15b17---15b17----|
|-9~-----------------|--------------------|--------------------|--------------------|
|--------------------|--------------------|--------------------|--------------------|
|--------------------|--------------------|--------------------|--------------------|
|--------------------|--------------------|--------------------|--------------------|


Chorus:
|--------------------|--------------------|--------------------|--------------------|
|--------------------|--------------------|--------------------|--------------------|
|---9-9-9-9-9-9-9----|--------------------|---7-7-7-7-7-7-7----|---9-9-9-9-9-9-9----|
|---9-9-9-9-9-9-9----|---5-5-5-5-5-5-5----|---7-7-7-7-7-7-7----|---9-9-9-9-9-9-9----| X2
|---7-7-7-7-7-7-7----|---5-5-5-5-5-5-5----|---5-5-5-5-5-5-5----|---7-7-7-7-7-7-7----|
|--------------------|---3-3-3-3-3-3-3----|--------------------|--------------------|



|--------------------|--------------------|--------------------|--------------------|
|--------------------|--------------------|--------------------|---8~---------------|
|--------------------|--------------------|---7~---------------|--------------------|
|---2~---------------|---5~---------------|--------------------|--------------------|
|---2~---------------|--------------------|--------------------|--------------------|
|---0~---------------|--------------------|--------------------|--------------------|



|--------------------|--------------------|--------------------|--------------------|
|--------------------|--------------------|--------------------|--------------------|
|--------------------|--------------------|--------------------|--------------------|
|-------9-----9------|-----5-----5--------|-------4---5---4----|-------4---5---4----| X4
|-----7---7-----7----|-------5-----5------|---5-5---5---5---5--|---7-7---7---7---7--|
|---0-------0--------|---3-----3-----3----|--------------------|--------------------|



|--------------------|--------------------|--------------------|--------------------|
|--------------------|--------------------|--------------------|--------------------|
|---7s9--9-9--9-9----|--------------------|---5s7--7-7--7-7----|---7s9--9-9--9-9----|
|---7s9--9-9--9-9----|---4s5--5-5--5-5----|---5s7--7-7--7-7----|---7s9--9-9--9-9----| X4
|---5s7--7-7--7-7----|---4s5--5-5--5-5----|---3s5--5-5--5-5----|---5s7--7-7--7-7----|
|--------------------|---2s3--3-3--3-3----|--------------------|--------------------|
      PM|---|              PM|---|              PM|---|              PM|---|


|--------------------|--------------------|--------------------|--------------------|
|--------------------|--------------------|--------------------|--------------------|
|--------------------|--------------------|--------------------|--------------------|
|-------9-----9------|-----5-----5--------|-------4---5---4----|-------4---5---4----| X2
|-----7---7-----7----|-------5-----5------|---5-5---5---5---5--|---7-7---7---7---7--|
|---0-------0--------|---3-----3-----3----|--------------------|--------------------|



Chorus:
|--------------------|--------------------|--------------------|--------------------|
|--------------------|--------------------|--------------------|--------------------|
|---9-9-9-9-9-9-9----|--------------------|---7-7-7-7-7-7-7----|---9-9-9-9-9-9-9----|
|---9-9-9-9-9-9-9----|---5-5-5-5-5-5-5----|---7-7-7-7-7-7-7----|---9-9-9-9-9-9-9----| X2
|---7-7-7-7-7-7-7----|---5-5-5-5-5-5-5----|---5-5-5-5-5-5-5----|---7-7-7-7-7-7-7----|
|--------------------|---3-3-3-3-3-3-3----|--------------------|--------------------|



|--------------------|--------------------|--------------------|--------------------|
|--------------------|--------------------|--------------------|--------------------|
|---9-9-9-9-9-9-9----|--12-12-12-12-12-12-|---7-7-7-7-7-7-7----|---9-9-9-9-9-9-9----|
|---9-9-9-9-9-9-9----|--12-12-12-12-12-12-|---7-7-7-7-7-7-7----|---9-9-9-9-9-9-9----|
|---7-7-7-7-7-7-7----|--10-10-10-10-10-10-|---5-5-5-5-5-5-5----|---7-7-7-7-7-7-7----|
|--------------------|--------------------|--------------------|--------------------|



|--------------------|--------------------|--------------------|--------------------|
|--------------------|--------------------|--------------------|---8~---------------|
|--------------------|--------------------|---7~---------------|--------------------|
|---2~---------------|---5~---------------|--------------------|--------------------|
|---2~---------------|--------------------|--------------------|--------------------|
|---0~---------------|--------------------|--------------------|--------------------|



|--------------------|
|--------------------|
|--------------------|
|---2~---------------|
|---2~---------------|
|---0~---------------|
Comments