Offspring - The Noose Chords & Tabs

 

The Noose Chords & Tabs

Offspring Chords & Tabs

Version: 6 Type: Tab 0 ratings
1 star 2 stars 3 stars 4 stars 5 stars
comments

The Noose Tab

-------------------------------------------------------------------
-------------------------------------------------------------------
-------------------------------------------------------------------
----9----9-------5------5---------4---5---4--------4-----5----4----x4
-77---77-------5---------------55---5---5---5---77-----7----7------
-------------3------33--------------------------------------------- 
intro 
----------------------
-------------------8---
---------------7------x1  bass only....
----------------------
---7----10------------
-----------------------
pre-verse
------------------------------- -------------------------------------
------------------------------- ---------------------------------------
----------------7-----9-------- --9-------------7------9---------------
--2------5------7-x8--9-x8----- --9-x8---5------7-x8---9-x8-------------
--2--x8--5--x8--5-----7-------- --7------5-x8---5------7-----------------
--0------3--------------------- ---------3------------------------------- 
pre-chorus x2                       chorus x2 
--------------
--------------
-------------
--2------------ chord used during 2nd verse
--2------------
--0------------ 

ok most of the solos on here were really wrong and i have no clue where they got all
those notes from the solo is pretty simple so here it is...
--------------------------------------------------------------------- 
-------12-12-10--10--------1515151515151515-1717171717171717---bend if u want
---9----------------12------------------------------------------------- 
--------------------------------------------------------------------- 
--------------------------------------------------------------------- 
--------------------------------------------------------------------- 
--------------------------------------------------------------------- 
part after solo 
---------------------------------------------------------------------
--------------------------------------------------------------------- 
-7-s--9xx9-------------5--s--7xx7----7-s--9xx9-------------------------- 
-5-s--9xx9--4-s--5xx5--5--s--7xx7----7-s--9xx9--------------------------- 
-5-s--7xx7--4-s--5xx3--3--s--5xx5----5-s--7xx7-------------------------- 
------------2-s--3xx3---------------------------------------------------
[ Tab from: http://www.guitartabs.cc/tabs/o/offspring/the_noose_tab_ver_6.html ]
Comments