Offspring - The Noose Chords & Tabs

 

The Noose Chords & Tabs

Offspring Chords & Tabs

Version: 4 Type: Tab 0 ratings
1 star 2 stars 3 stars 4 stars 5 stars
comments

The Noose Tab

BAND: offspring
SONG: the noose
BY:   drew
EMAIL:funeral_in_carpathia13@yahoo.com
TUNE: standard

the other tabs at this site are good, but they seemed somewhat off to me. This
seems to be 99% correct.  I would trust that its right because i bought the record
and played this song at the slow speed of 33, with the pitch at -10 on a turntable.
so it made it very easy to hear every note.

KEY:   /  SLIDE
       *  PM

INTRO - 4x
-------------------------------------------------------
-------------------------------------------------------
-------------------------------------------------------
------9----9--4h5-5-5------4---5---4-------4---5---4---
--7-7----7-------------5-5---5---5---5-7-7---7---7-----
-------------------------------------------------------


THAT ONE PART - 1x
--0---------------0---
--0-----------8---0---
--0-------7-------0---
--2---5-----------2---
--2---------------2---
--0---------------0---


VERSE 1 - 1x -starts with bass and drums (not sure why others give a rythm,
its only one strike then let it ring)
------------------------------------
------------------------------------
----------7---0-----------7---7-7---
--2---5---7---2---2---5---7---7-7---
--2---5---5---2---2---5---5---5-5---
--0---3---5---0---0---3-------------


CHORUS - 2x
-------------------------------------------------------------------
-------------------------------------------------------------------
--9-9-9-9-9-9-9-9-----------------7-7-7-7-7-7-7-7-9-9-9-9-9-9-9-9--
--9-9-9-9-9-9-9-9-5-5-5-5-5-5-5-5-7-7-7-7-7-7-7-7-9-9-9-9-9-9-9-9--
--7-7-7-7-7-7-7-7-5-5-5-5-5-5-5-5-5-5-5-5-5-5-5-5-7-7-7-7-7-7-7-7--
--7-7-7-7-7-7-7-7-3-3-3-3-3-3-3-3-5-5-5-5-5-5-5-5-7-7-7-7-7-7-7-7--


Verse 2/PRE CHORUS - 1x
---------------------------
---------------------------
--0--0--0---9---9-9---9----
--2--2--2---9---9-9---9----
--2--2--2---7---9-7---7----
--0--0--0---7---7-7---7----


CHORUS - 2x
-------------------------------------------------------------------
-------------------------------------------------------------------
--9-9-9-9-9-9-9-9-----------------7-7-7-7-7-7-7-7-9-9-9-9-9-9-9-9--
--9-9-9-9-9-9-9-9-5-5-5-5-5-5-5-5-7-7-7-7-7-7-7-7-9-9-9-9-9-9-9-9--
--7-7-7-7-7-7-7-7-5-5-5-5-5-5-5-5-5-5-5-5-5-5-5-5-7-7-7-7-7-7-7-7--
--7-7-7-7-7-7-7-7-3-3-3-3-3-3-3-3-5-5-5-5-5-5-5-5-7-7-7-7-7-7-7-7--


INTRO - 1x
-------------------------------------------------------
-------------------------------------------------------
-------------------------------------------------------
------9----9--4h5-5-5------4---5---4-------4---5---4---
--7-7----7-------------5-5---5---5---5-7-7---7---7-----
-------------------------------------------------------
[ Tab from: http://www.guitartabs.cc/tabs/o/offspring/the_noose_tab_ver_4.html ]
SOLO - to the other solos....wow.....i dont know where the fuck you got all those
notes, its not that complicated.  like i said i slowed it down on a turntable,
its much more simpler then what you may think
---------------------------
------11-11p9-9-14--17-----
----9----------------------
---------------------------
---------------------------
---------------------------


CHORUS - 2x
-------------------------------------------------------------------
-------------------------------------------------------------------
--9-9-9-9-9-9-9-9-----------------7-7-7-7-7-7-7-7-9-9-9-9-9-9-9-9--
--9-9-9-9-9-9-9-9-5-5-5-5-5-5-5-5-7-7-7-7-7-7-7-7-9-9-9-9-9-9-9-9--
--7-7-7-7-7-7-7-7-5-5-5-5-5-5-5-5-5-5-5-5-5-5-5-5-7-7-7-7-7-7-7-7--
--7-7-7-7-7-7-7-7-3-3-3-3-3-3-3-3-5-5-5-5-5-5-5-5-7-7-7-7-7-7-7-7--


THAT ONE PART - 1x
--0---------------0---
--0-----------8---0---
--0-------7-------0---
--2---5-----------2---
--2---------------2---
--0---------------0---


INTRO - 4x
-------------------------------------------------------
-------------------------------------------------------
-------------------------------------------------------
------9----9--4h5-5-5------4---5---4-------4---5---4---
--7-7----7-------------5-5---5---5---5-7-7---7---7-----
-------------------------------------------------------


BRIDGE - 2x
-------------------------------------------
-------------------------------------------
--7/9-99-9------------5/7-77-7--7/9-99-9---
--7/9-99-9--4/5-55-5--5/7-77-7--7/9-99-9---
--5/7-77-7--4/5-55-5--3/5-55-5--5/7-77-7---
--5/7-77-7--2/3-33-3--3/5-55-5-------------
      **        **        **        **


INTRO - 2x
-------------------------------------------------------
-------------------------------------------------------
-------------------------------------------------------
------9----9--4h5-5-5------4---5---4-------4---5---4---
--7-7----7-------------5-5---5---5---5-7-7---7---7-----
-------------------------------------------------------

CHORUS - 2x 
-------------------------------------------------------------------
-------------------------------------------------------------------
--9-9-9-9-9-9-9-9-----------------7-7-7-7-7-7-7-7-9-9-9-9-9-9-9-9--
--9-9-9-9-9-9-9-9-5-5-5-5-5-5-5-5-7-7-7-7-7-7-7-7-9-9-9-9-9-9-9-9--
--7-7-7-7-7-7-7-7-5-5-5-5-5-5-5-5-5-5-5-5-5-5-5-5-7-7-7-7-7-7-7-7--
--7-7-7-7-7-7-7-7-3-3-3-3-3-3-3-3-5-5-5-5-5-5-5-5-7-7-7-7-7-7-7-7--

AFTER 2x OF CHORUS, IT CHANGES TO THIS CHORUS SEQUENCE 1x
---------------------------------------------------------------------------
---------------------------------------------------------------------------
--9-9-9-9-9-9-9-9-12-12-12-12-12-12-12-12-7-7-7-7-7-7-7-7-9-9-9-9-9-9-9-9--
--9-9-9-9-9-9-9-9-12-12-12-12-12-12-12-12-7-7-7-7-7-7-7-7-9-9-9-9-9-9-9-9--
--7-7-7-7-7-7-7-7-10-10-10-10-10-10-10-10-5-5-5-5-5-5-5-5-7-7-7-7-7-7-7-7--
--7-7-7-7-7-7-7-7-10-10-10-10-10-10-10-10-5-5-5-5-5-5-5-5-7-7-7-7-7-7-7-7--

THAT ONE PART - 1x
--0---------------0---
--0-----------8---0---
--0-------7-------0---
--2---5-----------2---
--2---------------2---
--0---------------0---

And thats it, sounds right to me, if its not then its damn close, comments and
shit appreciated.
Comments