Offspring - The Noose Chords & Tabs

 

The Noose Chords & Tabs

Offspring Chords & Tabs

Version: 3 Type: Tab 0 ratings
1 star 2 stars 3 stars 4 stars 5 stars
comments

The Noose Tab

   
THE OFFSPRING - THE NOOSE

Chords Used:
E     G     D     E2
|-----|-----|-----|-----|
|-----|-----|-----|-----|
|-----|-----|--7--|--9--|
|--2--|--5--|--7--|--9--|
|--2--|--5--|--5--|--7--|
|--0--|--3--|-----|-----|

Intro:
Part 1
|--------------------------|-----------------------------------|
|--------------------------|-----------------------------------|
|--------------------------|-----------------------------------|
|------9-----9----5-5---5--|--0-0-4p0-5p0-4p0-2p0-4p0-5p0-4p0--|x4
|--7-7---7-7----3-----3----|-----------------------------------|
|--------------------------|-----------------------------------|

Part 2
|----------------|
|----------------|
|------------12--|
|--2--5--12------|
|--2-------------|
|--0-------------|

Part 3
|--------------------------------------------------------|
|--------------------------------------------------------|
|--------------------------------------------------------|
|--2-2----2-2----2-2----2-2----2-2----2-2----2-2----2-2--|
|--2-2----2-2----2-2----2-2----2-2----2-2----2-2----2-2--|
|--0-0--0-0-0--0-0-0--0-0-0--0-0-0--0-0-0--0-0-0--0-0-0--|

Verse 1:
         E                             G
Well our souls are all mistaken in the same misguided way
   D                               E2
We all end up forsaken, we're just choosing our own way
    E                        G   
The future now incinerates before our very eyes
    D                               E2
And leaves us with the emptiness of no more tries
[ Tab from: http://www.guitartabs.cc/tabs/o/offspring/the_noose_tab_ver_3.html ]
 
Verse 2:
         E                     G
Well our visions of glory have spiralled down the drain
    D                            E2
The best of our intentions comes crashing down again
    E                              G
The depths of our despair we are unable to contain
   D       E2
Whoa, it's shallow living

Chorus:
    E2                    D
The Noose is falling, and all my friends are crawling
    G                     E2
The Noose is falling, and enemies are rising
  E2                   G
A truth appalling, our mak'r comes a-calling
    G                     E2
The Noose is falling, and enemies are rising

Verse 3:
         E                           G
Well the tracers from yesteryear are burning in the dust
     D                          E2
Your bruises are reminders of naiveté and trust
       E                                G
You're only feeling stronger cause your body's getting numb
   D        E2
Whoa, now I lay you down
        D                           E2
Put the coins in your eyes and blow out the candles

Chorus

Intro - Part 1 (x1)

Solo:
|-----------------------------|
|-----------------------------|
|------16--16p14--14--19--21--|
|--14-------------------------|
|-----------------------------|
|-----------------------------|

Chorus

Intro - Part 2

Intro - Part 1 (x4)

Bridge:
E2        G
No more!  No more!
D   D/E2
Nothing!
E2        G
No more!  No more!
D D/E2
Ever!
E    G D D/E2
No!  Moooore!
E    G D D/E2
No!  Moooore!

Chorus

1st half Chorus

Intro - Part 2

End on E

=============================================================================

tabbed by orange_squirrel

yep027@hotmail.com
Comments