Offspring - The Kids Arent Alright Chords & Tabs

 

The Kids Arent Alright Chords & Tabs

Offspring Chords & Tabs

Version: 7 Type: Tab 0 ratings
1 star 2 stars 3 stars 4 stars 5 stars
comments

The Kids Arent Alright Tab

   
THE KIDS AREN'T ALRIGHT by NOFX. Album : Americana (1998)                 1/2

At last! Outrageous song with SOLO!
A=left guitar   B=right guitar   A&B=both
:
# intro #A !use palm-muting!                                         
E---------------------------------------------------------------------|
B---------------------------------------------------------------------|
G-----6-6-65-55556----6-6-65-55556----6-6-65-55556--688886665-55556---|
D-----8-8-88-88888----4-4-44-44444----6-6-66-66666--666666666-66666---|
A---------------------------------------------------------------------|
E---------------------------------------------------------------------|
[ Tab from: http://www.guitartabs.cc/tabs/o/offspring/the_kids_arent_alright_tab_ver_7.html ]
# intro #B !play all notes X16 palm-muted!                                              
E---------------------------------------------------------------------|
B---------------------------------------------------------------------|
G---6---------------6---------------6---------------6-----------------|
D---8---------------4---------------6---------------6-----------------|
A---------------------------------------------------------------------|
E---------------------------------------------------------------------|
:
# intro2 #B   !GuitarA plays introA!
E---------------------------------------------------------------------|
B---------------------------------------------------------------------|
G---3-------------------------------6---------------------------------|
D---3---------------4---------------6---------------6-----------------|
A---1---------------4---------------4---------------6-----------------|
E-------------------2-------------------------------4-----------------|
:
# riff #A X2
E----------------------------------------------------------------------|
B----------------------------------------------------------------------|
G----------------------------------------------------------------------|
D----------------------------------------------------------------------|
A---1-------1-3--4------------3--4------1111333344444666444433334444---|
E-------------------2-------2-------4444-------------------------------|
# riff #B X2  !play all notes X12!
E----------------------------------------------------------------------|
B----------------------------------------------------------------------|
G------------------11---------------6----------------------------------|
D---8--------------11---------------6---------------6------------------|
A---8---------------9---------------4---------------6------------------|
E---6-----------------------------------------------4------------------|
:
Then play A&Bintro2BX2 (play all notes X14 with some palm-muting), A&BriffBX2,
AriffA or BriffB, A&Bintro2BX2 (play all notes X14 with some palm-muting) and
A&BriffBX2.
:
# solo #A   !GuitarB plays introBX2!   h=hammer-on  b=bend-up to next note
E-----------------------------------------------9--11--13--16--13h16-----
B---------------------------------------9--11-----------------------16---
G------------------------------------------------------------------------
D------------------------------------------------------------------------
A---1-----1-3-----3-4-----4-6-6-6-8-8-8----------------------------------
E------------------------------------------------------------------------
soloA k=keep on bending    r=release bending
----------------------------------------------------------------------------
-14-16b18-16k16k16k16k16k-16k1614--141614-------------------14--1411--------
---------------------------------15----------13-13-11----13---------131013--
----------------------------------------------------------------------------
----------------------------------------------------------------------------
----------------------------------------------------------------------------
soloA
-------------------------------------|
-14-16b18-16k16k-16k1614--16b18r16---|
-------------------------------------|
-------------------------------------|
-------------------------------------|
-------------------------------------|


another version:
THE KIDS AREN'T ALRIGHT                                                   2/2

# chorus3 #B X2   !GuitarA plays riffBX2!   *=play X12
E---------------------------------------------------------------------|
B--------------------*------------------------------------------------|
G----*-------------11-------------------------------------------------|
D---8--------------11---------------8-6-8-6-8-6-8-6-8-6-8-6-8-6-8-6---|
A---8---------------9-------------------------------------------------|
E---6-----------------------------------------------------------------|
:
# outro #A
E-------------------------------|
B-------------------------------|
G-------------------------------|
D---8-----------------------8\--|
A---8-----------------------8\--|
E---6-----------------------6\--|
# outro #B
E-------------------------------|
B-------------------------------|
G-------------------------------|
D---8-6-8-6-8-6-8-6-8-6-8-6-8\--|
A-------------------------------|
E-------------------------------|
:
Comments