Offspring - The Kids Arent Alright Chords & Tabs

 

The Kids Arent Alright Chords & Tabs

Offspring Chords & Tabs

Version: 2 Type: Tab 0 ratings
1 star 2 stars 3 stars 4 stars 5 stars
comments

The Kids Arent Alright Tab

#----------------------------------PLEASE NOTE---------------------------------#
#This file is the author's own work and represents their interpretation of the #
#song. You may only use this file for private study, scholarship, or research. #
#------------------------------------------------------------------------------#

"The Kids Aren't Alright"
By the Offspring.
Tabbed by Ben!

Intro
|----------------------------------------------|
|----------------------------------------------|
|------6---6-----5---5-5-5-5/6-----------------|
|--8-8-8-8-8-8-8-8-8-8-8-8-8-8-----------------|
|----------------------------------------------|
|----------------------------------------------|

|----------------------------------------------|
|----------------------------------------------|
|------6---6-----5---5-5-5-5/6-----------------|
|--4-4-4-4-4-4-4-4-4-4-4-4-4-4-----------------|
|----------------------------------------------|
|----------------------------------------------|

|---------------------------------------------------------|
|---------------------------------------------------------|
|------6---6-----5---5-5-5-5/6--6-8-8-8-6-6-5-5-5-5-5-5/6-|  Do all that
|--6-6-6-6-6-6-6-6-6-6-6-6-6-6--6-6-6-6-6-6-6-6-6-6-6-6---|     2x
|---------------------------------------------------------|
|---------------------------------------------------------|

PRE-VERSE RIFF
x|-------------------------------|
x|-------------------------------|
x|5~~7-8---7-8----5-7-8-10-8-7---|
x|------5~~-----8--------------8-|
x|-------------------------------|
x|-------------------------------|
[ Tab from: http://www.guitartabs.cc/tabs/o/offspring/the_kids_arent_alright_tab_ver_2.html ]
VERSE (i didnt type out all the palm mutes(sorry), they go to the beat of the song, you should get the idea it didn’t take me long)
x|-------------------------------------|
x|-------------------------------------|
x|-x-x-x-x-5-7-x-x-x-x-7-5-x-x-x-x-7-4-|
x|-x-x-x-x-5-7-x-x-x-x-7-5-x-x-x-x-7-4-|
x|-x-x-x-x-5-7-x-x-x-x-7-5-x-x-x-x-7-4-|
x|-x-x-x-x-3-5-x-x-x-x-5-3-x-x-x-x-5-2-|
 

PRE-CHORES
x|---------------------|
x|---------------------|
x|---3/7-7-7-7-7-7-7-7-|
x|---3/7-7-7-7-7-7-7-7-|
x|---3/7-7-7-7-7-7-7-7-|
x|---1/5-5-5-5-5-5-5-5-|
  

CHORUS
x|-----------------------------------------------------------------|
x|-----------------------------------------------------------------|
x|-----------------------------------------------------------------|
x|-9-9-9-9-9-9-9-9-5-5-5-5-5-5-5-5-3-3-3-3-3-3-3-3-7-7-7-7-7-7-7-7-|
x|-9-9-9-9-9-9-9-9-5-5-5-5-5-5-5-5-3-3-3-3-3-3-3-3-7-7-7-7-7-7-7-7-|
x|-7-7-7-7-7-7-7-7-3-3-3-3-3-3-3-3-1-1-1-1-1-1-1-1-5-5-5-5-5-5-5-5-|


SOLO (this is how i play it)
x|----------------------------------------------------------------------|
x|------------4-6-8-9-11-9-8-8/13-13-13-13-13-13-13~-12-11-9-9-9-8-6-5~-|
x|-5~7~8~10~12----------------------------------------------------------|
x|----------------------------------------------------------------------|
x|----------------------------------------------------------------------|
x|----------------------------------------------------------------------|

x|-----------------------8-8-8-7-4-6-|
x|-5-5-8-6-6-6-6-6~-8-10-------------|
x|-----------------------------------|
x|-----------------------------------|
x|-----------------------------------|
x|-----------------------------------|

I think I got it rite! If there an any corrections you would like to make then please 
e-mail me at punkguitaristNo1@aol.com
Comments