Offspring - The Kids Arent Alright Chords & Tabs

 

The Kids Arent Alright Chords & Tabs

Offspring Chords & Tabs

Version: 14 Type: Tab 0 ratings
1 star 2 stars 3 stars 4 stars 5 stars
comments

The Kids Arent Alright Tab

Author/Artist: The Offspring
Title: The Kids Arent Alright
Album: Americana
Transcribed by: apocalypse
perfect, ive played along with the CD, and its perfect

<---> palm mute
/ slide down
\ slide up
^ note takes effect here
(...) Note
INTRO
------------------------------------------------------------------
------------------------------------------------------------------
------------------------------------------------------------------
-------11----11-------10----10-10-10-10/11------11----11-------10-
-13-13-13-13-13-13-13-13-13-13-13-13-13----9--9--9--9--9--9--9--9-
------------------------------------------------------------------
^(3rd finger on A string 1st on D)    ^(Hold this 13 on and slide the 10 up to 11)

(shift finger postition, so that 1st finger on 9, and 3rd on 11)

------------------------------------------------------------------
------------------------------------------------------------------
------------------------------------------------------------------
---10-10-10-10/11-------11----11-------11----10-10-10-10h11-11-11-
-9--9--9--9--9----11-11-11-11-11-11-11-11-11-11-11-11-11----11-11-
------------------------------------------------------------------
                   ^(now use 2nd finger on A string, 3rd finger on D, bring your 
1st finger up behind them, for use on the 10th fret D string)                                                         
[ Tab from: http://www.guitartabs.cc/tabs/o/offspring/the_kids_arent_alright_tab_ver_14.html ]
-------------------------------------
-------------------------------------
-------------------------------------
-13-13-13-11-11-10-10-10-10h11-11----
-11-11-11-11-11-11-11-11-11-------11-
-------------------------------------
                 X2                                                            
INTRO 2
-------------------------------------------------------------
-------------------------------------------------------------
-------------------------------------------------------------
-------------------------------------------------------------
-1-1/3-3/4---3-4-------------3-3-3-3-4-4-4-4-4h6-6-6-4-4-4-4-
-----------2-----4-4-4-6-6-6---------------------------------
                                                                             
-----------------
-----------------
-----------------
-----------------
-3-3-3-3-4-4-4-4-
-----------------
             X2                                                              
VERSE
-----------------------------------------------------------
-----------------------------------------------------------
-----------------------------------------------------------
-8-8-8-8-8-8-8-8-8-8-8-8-8-8---4-4-4-4-4-4-4-4-4-4-4-4-4-4-
-8-8-8-8-8-8-8-8-8-8-8-8-8-8---4-4-4-4-4-4-4-4-4-4-4-4-4-4-
-6-6-6-6-6-6-6-6-6-6-6-6-6-6---2-2-2-2-2-2-2-2-2-2-2-2-2-2-
   <--------------------->       <--------------------->    
       Palm mute
-----------------------------------------------------------
-----------------------------------------------------------
-6-6-6-6-6-6-6-6-6-6-6-6-6-6-------------------------------
-6-6-6-6-6-6-6-6-6-6-6-6-6-6---6-6-6-6-6-6-6-6-6-6-6-6-6-6-
-4-4-4-4-4-4-4-4-4-4-4-4-4-4---6-6-6-6-6-6-6-6-6-6-6-6-6-6-
-------------------------------4-4-4-4-4-4-4-4-4-4-4-4-4-4-
   <--------------------->       <---------------------->               X2       
For the chorus play the same agen, but this time, no palm muting, and instead of 
-4--
-4--
-2--

use
----
----
-13-
-13-
--9-
----
And do alternate picking, and only pick each chord 10 times, gottit?

The song orders easy, but for those of you in a muddle here it is

Intro
Intro2
Verse
Chorus
Verse
Chorus
I cant be arsed with the words, this is a tb site, not a lyrics site, if there are such 
things

with the palm muting, if youve no idea woss goin on, its the middle 10 chords out of each
section of 12 that gets palm muted!
Comments