Offspring - The Kids Arent Alright Chords & Tabs

 

The Kids Arent Alright Chords & Tabs

Offspring Chords & Tabs

Version: 12 Type: Tab 0 ratings
1 star 2 stars 3 stars 4 stars 5 stars
comments

The Kids Arent Alright Tab

   
Tabed By Joe

I HAVE IT PERFECT.  I DID IT WITH THE
CD ABOUT 1000 TIMES.
/= slide
M= palm-mute		
H= hold note
*Timings Aren't Alright

Riff A
E:---------------------------------------------------------------------|
B:---------------------------------------------------------------------|
G:-----6-6-5-5-5-5-6------6-6-5-5-5-5-6------6-6-5-5-5-5-6--8--5-6-5---|
D:-8-8-8-8-8-8-8-8-8--4-4-4-4-4-4-4-4-4--6-6-6-6-6-6-6-6-6-------------|
A:---------------------------------------------------------------------|
E:---------------------------------------------------------------------|


Riff B
E:---------------------------------------------------------------------|
B:---------------------------------------------------------------------|
G:---------------------------------------------------------------------|
D:---------------------------------------------------------------------|
A:-1-1--3/4-----3/4---1-1--3/4-6-4-3-4---------------------------------|
E:----------2-2-----4--------------------------------------------------|


Riff C
E:---------------------------------------------------------------------|
B:---------------------------------------------------------------------|
G:--------------------------------------MMMMMMMMMMM--------------------|
D:----MMMMMMMMMMM------MMMMMMMMMMM--/-6-66666666666-6/---MMMMMMMMMMM---|
A:--8-88888888888-8/-4-44444444444-4/-4-44444444444-4/-6-66666666666-6-|
E:--6-66666666666-6/-2-22222222222-2/----------------/-4-44444444444-4-|

[ Tab from: http://www.guitartabs.cc/tabs/o/offspring/the_kids_arent_alright_tab_ver_12.html ]
Riff D
E:---------------------------------------------------------------------|
B:---------------------------------------------------------------------|
G:---------------------------------------------------------------------|
D:------------------------------------6-6-6-6-6-6-6-6/-----------------|
A:--8-8-8-8-8-8-8-8/-4-4-4-4-4-4-4-4/-4-4-4-4-4-4-4-4/-6-6-6-6-6-6-6-6-|
E:--6-6-6-6-6-6-6-6/-2-2-2-2-2-2-2-2/----------------/-4-4-4-4-4-4-4-4-|


Riff E
E:---------------------------------------------16----------------------|
B:----------------------/9--/11--/14--/16--/18----1618-16--14--16------|
G:---------------------------------------------------------------------|
D:---------------------------------------------------------------------|
A:-1--1/33--3/44-4/66-8------------------------------------------------|
E:---------------------------------------------------------------------|

E:---------------------------------------------------------------------|
B:-18-/18--/18-18-18-16-14----14h16-14---------------------------------|
G:-------------------------13----------/13-13-11-----------------------|
D:---------------------------------------------------------------------|
A:---------------------------------------------------------------------|
E:---------------------------------------------------------------------|

E:---------------------------------------------------------------------|
B:---------14-14-14--------------------14-16-18-18-18-16-14-16-18-16-16|
G:-13-15--------------12-13-15-13-12-13--------------------------------|
D:------------------15-------------------------------------------------|
A:---------------------------------------------------------------------|
E:---------------------------------------------------------------------|


Riff F
-REPEAT UNTIL END OF SONG.
E:-----------------------|
B:--11----11----11-------|
G:-----13----13----13----|
D:-----------------------|
A:-----------------------|
E:-----------------------|


SONG ORDER:

Riff Ax2
Riff Bx2
Riff Cx2
Riff Dx2
Riff Bx2
Riff Cx2
Riff Dx2
Riff E
Riff F (until song ends)
I play Riff D as the ryhthm for Riff F
Comments