Offspring - The Kids Arent Alright Chords & Tabs

 

The Kids Arent Alright Chords & Tabs

Offspring Chords & Tabs

Version: 11 Type: Tab 0 ratings
1 star 2 stars 3 stars 4 stars 5 stars
comments

The Kids Arent Alright Tab

Symbols Used In Tab:
Slide Up   /
Slide Down \

Intro:
E|--------------------------------------------------------
B|--------------------------------------------------------
G|-----6-----6-----6-5-5-5/6-------6-----6-----6-5-5-5\6--
D|-8-8-8-8-8-8-8-8-8-8-8-8-8---4-4-4-4-4-4-4-4-4-4-4-4-4--
A|--------------------------------------------------------
E|--------------------------------------------------------

E|---------------------------------------------
B|---------------------------------------------
G|-----5-----5-----5-5-5-5/6---8--6--5-5-5-5/6-
D|-6-6-6-6-6-6-6-6-6-6-6-6/6---6--6--6-6-6-6/6-
A|---------------------------------------------
E|---------------------------------------------
[ Tab from: http://www.guitartabs.cc/tabs/o/offspring/the_kids_arent_alright_tab_ver_11.html ]
If you listen really carefully here, u can hear that he picks the last part really fast:
         From Here|                               To Here| 
E|--------------------------------------------------------
B|--------------------------------------------------------
G|--------------------------------------------------------
D|--------------------------------------------------------
A|-1-1/3/4-----3/4-----------3333/4444/6666/4444/3333/4444
E|---------2-2-----4444/6666------------------------------

Verse: Strum 8 times
E|--------------
B|--------------
G|--3-----6-----
D|--3--4--6--6--
A|--1--4--4--6--
E|-----2-----4--

Chorus: Strum 8 times
E|--------------
B|-----6--------
G|--3--6--6-----
D|--3--4--6--6--
A|--1-----4--6--
E|-----------4--

Outro:
I don't know how many times to do this, whatever floats ur boat i guess.....
E|---------------------
B|--11-9-11-9-11-9-11--
G|---------------------
D|---------------------
A|---------------------
E|---------------------

I have no idea how to do the solo, but theres a good one in the version 2 of this song 
with the 5 star rating, enjoy
Comments