Offspring - The Kids Arent Alright Chords & Tabs

 

The Kids Arent Alright Chords & Tabs

Offspring Chords & Tabs

Version: 10 Type: Tab 0 ratings
1 star 2 stars 3 stars 4 stars 5 stars
comments

The Kids Arent Alright Tab

  Artist-Offspring
Song-The kids aren't alright
Album-Amercana
Tabed by tom(willynan30)

Rythem guitar

e--------------------------------------
b--------------------------------------
g---------6-----------------------------
d-8---4---6---6-------------------------
a-8---4---4---6-------------------------
e-6---2-------4-------------------------
Figure out timing it basically this all the way through.

Intro:x2
e------------------------  ------------------------  
b------------------------  ------------------------  
g--6-6-6-6-6-6-5-5-6-6-6-  --6-6-6-6-6-6-5-5-6-6-6-  
d--8-8-8-8-8-8-8-8-8-8-8-  --4-4-4-4-4-4-4-4-4-4-4-  
a------------------------  ------------------------  
e------------------------  ------------------------  
 pm------------------]       [-------------------]    

-------------------------------------------------------
-------------------------------------------------------
--6-6-6-6-5-5-5-6-6-6-6-6-6--6-6-8-8-6-6-6-5-5-5-5-6-6-6----
--6-6-6-6-6-6-6-6-6-6-6-6-6--6-6-6-6-6-6-6-6-6-6-6-6-6-6----
-------------------------------------------------------
-------------------------------------------------------
[----------------------]

[ Tab from: http://www.guitartabs.cc/tabs/o/offspring/the_kids_arent_alright_tab_ver_10.html ]
x2
e---------------------------------------
b---------------------------------------
g---------------------------------------
d---------------------------------------
a--1-1/3-3-4-----3-3-4-----------3333-4444-6666-4444-3333/4
e------------2-2-------4444-6666----------------

then the chorus and the the verse are just the rythem guitar part but muted on the verse.

Solo: listen to rythem                  
               
e----------------------------------9-^--11^--13^-16-  
b-------------------------9^--11^--12^--14^--16^----  
g------------------------11^--13^-------------------  
d---------------------------------------------------  
a-1-1/3-3-3/4-4-4/6-6-8-----------------------------  
e---------------------------------------------------  
 
--------13^-----------------------------------9--- 
16-14---16^-----16-14-16-14----14-16-14---11^---9- 
----------------------------15-------------------- 
-------------------------------------------------- 
-------------------------------------------------- 
-------------------------------------------------- 

----------------------------------
------9-14-16-14-16^-16-14-16^-16-
10-11-----------------------------
----------------------------------
----------------------------------
----------------------------------

listen to timing to get in accurate and then play around with it.

outro riff:
e---4--6--4--6--4--6--4--6--4--6--------
b---------------------------------------
g---------------------------------------
d---------------------------------------
a---------------------------------------
e---------------------------------------
  
Comments