Offspring - The Kids Arent Alright Chords & Tabs

 

The Kids Arent Alright Chords & Tabs

Offspring Chords & Tabs

Version: 7 Type: Bass Tab

The Kids Arent Alright Bass Tab

BASS
THE OFFSPRING
THE KIDS ARENT ALRIGHT
ALBUM-AMERICANA

TABBED BY BMILNE
EADG

GUITAR PLAYS
THEN

INTRO 1
G----------|
D----------|
A-1-----4--|
E---2------|X1

INTRO 2
G---------------------------------------|
D---------------------------------------|
A-1--1-3-4------3-4---1-3-4-6-4-3-4-----|
E----------2--2-----4-------------------|X2

VERSE X4
G--------------------------------------------------------------------------|
D--------------------------------------------------------------------------|
A-1-1-1-1-1-1-1-1-1-1-1-1-------------------------4-4-4-4-4-4-4-4-4-4-4-4--|
E-------------------------2-2-2-2-2-2-2-2-2-2-2-2--------------------------|
[ Tab from: http://www.guitartabs.cc/tabs/o/offspring/the_kids_arent_alright_btab_ver_7.html ]
G---------------------------|
D---------------------------|
A---------------------------|
E-4-4-4-4-4-4-4-4-4-4-4-4---|

CHORUS X2
G-------------------------------------------------------------------------|
D-------------------------4-4-4-4-4-4-4-4-4-4-4-4-------------------------|
A-1-1-1-1-1-1-1-1-1-1-1-1-------------------------4-4-4-4-4-4-4-4-4-4-4-4-|
E-------------------------------------------------------------------------|

G----------------------------|
D----------------------------|
A----------------------------|
E-4-4-4-4-4-4-4-4-4-4-4-4----|

SOLO-PLAY VERSE X2

END X1
G--------------|
D--------------|
A--------------|
E-5---------5\-|

THATS ALL THERE IS TO IT.