Offspring - The Kids Arent Alright Chords & Tabs

 

The Kids Arent Alright Chords & Tabs

Offspring Chords & Tabs

Version: 5 Type: Bass Tab 0 ratings
1 star 2 stars 3 stars 4 stars 5 stars
comments

The Kids Arent Alright Bass Tab

Artist: The Offspring
Song: The Kids Aren't Alright
Tabbed By Pratman

Intro
G:----------------------------------------------------------------------------|
D:----------------------------------------------------------------------------|
A:1-1--3-4-----3-4---------1-1-1-1-3-3-3-3-4-4-4-4-6-6-6-6-4-4-4-4-3-3-3-3-4-4|
E:---------2-2-----4-4-4-4----------------------------------------------------|
[ Tab from: http://www.guitartabs.cc/tabs/o/offspring/the_kids_arent_alright_btab_ver_5.html ]
Verse
G:----------------------------------------------------------------|
D:----------------------------------------------------------------|
A:1-1-1-1-1-1-1-1------------------4-4-4-4-4-4-4-4----------------|
E:-----------------2-2-2-2-2-2-2-2-----------------4-4-4-4-4-4-4-4|

Chorus
G:---------------------------------------------------------------|
D:----------------4-4-4-4-4-4-4-4--------------------------------|
A:1-1-1-1-1-1-1-1-----------------4-4-4-4-4-4-4-4----------------|
E:------------------------------------------------4-4-4-4-4-4-4-4|
Comments