Offspring - Tehran Chords & Tabs

 

Tehran Chords & Tabs

Offspring Chords & Tabs

Version: 1 Type: Bass Tab 0 ratings
1 star 2 stars 3 stars 4 stars 5 stars
comments

Tehran Bass Tab

   
Taken from www.mattsmusicpage.com

Tehran
The Offspring


NOTE : I have no idea what Git means..maybe the tabber didn't like Greg K :/

A=Accent
X=Times

Intro

G]---------------------
D]---------------------
A]---5-7-7-7---7-7-7--- Repeat
E]-7---------0-------0-

Git-Riff

G]----------------14-13----------------------
D]----------------------15----------------12-
A]-14-14-14-14-14----------14-14-14-14-14---- Repeat
E]-------------------------------------------

Git-Build

G]------------------------------
D]------------------------------
A]-7-8-10-12-14-15-17-19--------
E]------------------------------

Build w/ Drums
[ Tab from: http://www.guitartabs.cc/tabs/o/offspring/tehran_btab.html ]
G]------------------------------------------------------
D]---------A---------A---------A----------A----------A--
A]---------7---------8---------10---------12---------14-
E]-0-0-0-0---0-0-0-0---0-0-0-0----0-0-0-0----0-0-0-0----

Hook

G]-13-13-13-13-14-16-16-16-16-14-13-13-13-13-------------
D]-------------------------------------------15-14-15-14-
A]-------------------------------------------------------
E]-------------------------------------------------------

Verse

G]---------------------A-----------
D]---------------------3-----------
A]-----------0-0-0-0-0-------------
E]-0-0-0-0-0-------------0-0-0-0-0-

G]---------------------------------
D]---------------------------------
A]---------5-5-5-5-3-3-3-3-7-7-7-7- To Hook
E]-3-3-3-3-------------------------

Comments