Offspring - Take It Like A Man Chords & Tabs

 

Take It Like A Man Chords & Tabs

Offspring Chords & Tabs

Version: 1 Type: Tab 0 ratings
1 star 2 stars 3 stars 4 stars 5 stars
comments

Take It Like A Man Tab

   
----------------------------------------------------------------------------
		    Take It Like A Man - The Offspring
----------------------------------------------------------------------------
Tabbed by: Clayton Pennington
Email: offspring_punk08@hotmail.com

Tuning: Standard

Intro (Dexter) x8
e|-------------------------------------------------------------------------|
B|-------------------------------------------------------------------------|
G|-7-7-7-7-7--5------------------------------------------------------------|
D|-x-x-x-x-x--x--5-5-------------------------------------------------------|
A|-5-5-5-5-5--3--x-x-------------------------------------------------------|
E|---------------3-3-------------------------------------------------------|

Intro (Noodles) x4 (After Dexter plays 4 times)
e|-------------------------------------------------------------------------|
B|-------------------------------------------------------------------------|
G|-7-7-7-7-7--5------------------------------------------------------------|
D|-7-7-7-7-7--5--5-5-------------------------------------------------------|
A|-5-5-5-5-5--3--5-5-------------------------------------------------------|
E|---------------3-3-------------------------------------------------------|

Verse (x2)
e|-------------------------------------------------------------------------|
B|--------------------------------------------------------------(x2)-------|
G|-7-7777-7-77-7-7777-7-777-5h7------12-12-12-12~-8-8-8-8~-7-7-7-7-7-5-----|
D|-7-7777-7-77-7-7777-7-777-----(x2)-12-12-12-12~-8-8-8-8~-x-x-x-x-x-x-5-5-|
A|-5-5555-5-55-5-5555-5-555----------10-10-10-10~-6-6-6-6~-5-5-5-5-5-3-x-x-|
E|---------------------------------------------------------------------3-3-|
  |x xxxx x xx x xxxx x xxx|

Chorus
e|-------------------------------------------------------------------------|
B|-------------------------------------------------------------------------|
G|-5-5-7-8-7-5-7-7-7-14-12-11--5-5-7-8-7-5-7--1919191919191919-------------|
D|-5-5-7-8-7-5-7-7-7-x--x--x---5-5-7-8-7-5-7--x-x-x-x-x-x-x-x--------------|
A|-3-3-5-6-5-3-5-5-5-12-10-9---3-3-5-6-5-3-5--1717171717171717-------------|
E|-------------------------------------------------------------------------|

Chorus (cont.)
e|-------------------------------------------------------------------------|
B|-------------------------------------------------------------------------|
G|-5-5-7-8-7-5-7-7-7-14-12-11--10~~~~~-9~~~~~------------------------------|
D|-5-5-7-8-7-5-7-7-7-x--x--x---x-------x-----------------------------------|
A|-3-3-5-6-5-3-5-5-5-12-10-9---8~~~~~~-7~~~~~------------------------------|
E|-------------------------------------------------------------------------|

Pre-Verse (x4)
e|-------------------------------------------------------------------------|
B|-------------------------------------------------------------------------|
G|-7-7-7-7-7--5------------------------------------------------------------|
D|-7-7-7-7-7--5--5-5-------------------------------------------------------|
A|-5-5-5-5-5--3--5-5-------------------------------------------------------|
E|---------------3-3-------------------------------------------------------|
  |x x x x x  x  x x|

Verse (x2)
e|-------------------------------------------------------------------------|
B|--------------------------------------------------------------(x2)-------|
G|-7-7777-7-77-7-7777-7-777-5h7------12-12-12-12~-8-8-8-8~-7-7-7-7-7-5-----|
D|-7-7777-7-77-7-7777-7-777-----(x2)-12-12-12-12~-8-8-8-8~-x-x-x-x-x-x-5-5-|
A|-5-5555-5-55-5-5555-5-555----------10-10-10-10~-6-6-6-6~-5-5-5-5-5-3-x-x-|
E|---------------------------------------------------------------------3-3-|
  |x xxxx x xx x xxxx x xxx|
[ Tab from: http://www.guitartabs.cc/tabs/o/offspring/take_it_like_a_man_tab.html ]
Chorus
e|-------------------------------------------------------------------------|
B|-------------------------------------------------------------------------|
G|-5-5-7-8-7-5-7-7-7-14-12-11--5-5-7-8-7-5-7--1919191919191919-------------|
D|-5-5-7-8-7-5-7-7-7-x--x--x---5-5-7-8-7-5-7--x-x-x-x-x-x-x-x--------------|
A|-3-3-5-6-5-3-5-5-5-12-10-9---3-3-5-6-5-3-5--1717171717171717-------------|
E|-------------------------------------------------------------------------|

Chorus (cont.)
e|-------------------------------------------------------------------------|
B|-------------------------------------------------------------------------|
G|-5-5-7-8-7-5-7-7-7-14-12-11--10~~~~~-9~~~~~------------------------------|
D|-5-5-7-8-7-5-7-7-7-x--x--x---x-------x-----------------------------------|
A|-3-3-5-6-5-3-5-5-5-12-10-9---8~~~~~~-7~~~~~------------------------------|
E|-------------------------------------------------------------------------|

Bridge (Rhythm is tricky)
e|-------------------------------------------------------------------------|
B|-------------------------------------------------------------------------|
G|-7-77777-77-77------7--787-787--7--555555555555555-7-6--------7-6--------|
D|-7-77777-77-77-(x4)-7--787-787--7--555555555555555-7-6-8-757--7-6-8-757--|
A|-5-55555-55-55------5--565-565--5--333333333333333-5-4-8-757--5-4-8-757--|
E|-------------------------------------------------------6-535------6-535--|
  |x xxxxx xx xx|

Bridge (Cont.)
e|-------------------------------------------------------------------------|
B|-------------------------------------------------------------------------|
G|-555555555555555-7-6--------5-8-7----------------------------------------|
D|-555555555555555-7-6-8-757--5-8-7----------------------------------------|
A|-333333333333333-5-4-8-757--3-6-5----------------------------------------|
E|---------------------6-535-----------------------------------------------|

Chorus
e|-------------------------------------------------------------------------|
B|-------------------------------------------------------------------------|
G|-5-5-7-8-7-5-7-7-7-14-12-11--5-5-7-8-7-5-7--1919191919191919-------------|
D|-5-5-7-8-7-5-7-7-7-x--x--x---5-5-7-8-7-5-7--x-x-x-x-x-x-x-x--------------|
A|-3-3-5-6-5-3-5-5-5-12-10-9---3-3-5-6-5-3-5--1717171717171717-------------|
E|-------------------------------------------------------------------------|

Chorus (cont.)
e|-------------------------------------------------------------------------|
B|-------------------------------------------------------------------------|
G|-5-5-7-8-7-5-7-7-7-14-12-11--10~~~~~-9~~~~~------------------------------|
D|-5-5-7-8-7-5-7-7-7-x--x--x---x-------x-----------------------------------|
A|-3-3-5-6-5-3-5-5-5-12-10-9---8~~~~~~-7~~~~~------------------------------|
E|-------------------------------------------------------------------------|

Intro (Dexter) x4
e|-------------------------------------------------------------------------|
B|-------------------------------------------------------------------------|
G|-7-7-7-7-7--5------------------------------------------------------------|
D|-x-x-x-x-x--x--5-5-------------------------------------------------------|
A|-5-5-5-5-5--3--x-x-------------------------------------------------------|
E|---------------3-3-------------------------------------------------------|

Verse 
e|-------------------------------------------------------------------------|
B|--------------------------------------------------------------(x2)-------|
G|-7-7777-7-77-7-7777-7-777-5h7------12-12-12-12~-8-8-8-8~-7-7-7-7-7-5-----|
D|-7-7777-7-77-7-7777-7-777-----(x2)-12-12-12-12~-8-8-8-8~-x-x-x-x-x-x-5-5-|
A|-5-5555-5-55-5-5555-5-555----------10-10-10-10~-6-6-6-6~-5-5-5-5-5-3-x-x-|
E|---------------------------------------------------------------------3-3-|
  |x xxxx x xx x xxxx x xxx|

Ending
e|-------------------------------------------------------------------------|
B|-------------------------------------------------------------------------|
G|--12-12-12-12~-8-8-8-8~-7-7-7-7-7-5------7-7-7~~~~-----------------------|
D|--12-12-12-12~-8-8-8-8~-x-x-x-x-x-x-5-5--x-x-x---------------------------|
A|--10-10-10-10~-6-6-6-6~-5-5-5-5-5-3-x-x--5-5-5~~~~-----------------------|
E|------------------------------------3-3----------------------------------|



| /  slide up
| \  slide down
| h  hammer-on
| p  pull-off
| ~  vibrato
| +  harmonic
| x  Mute note
============================================================================
Comments